Song name
# A B C D E F G H I J K L M N O P Q R S T U V W X Y Z

Skrewdriver - Wheres It Gonna End tab

Title: Where's it gonna end
 Band: Skrewdriver
Album: All Skrewed up

     Intro:

     e------------------------|
     b------------------------|
     g---7----1-11-2-22-1-1---|
     d-----5--2-22-2-22-2-2---|
     a--------2-22-1-11-2-2---|
     e--------0-00-0-00-0-0---| (play eight times)

     Verse:

     e--------------------------|
     b--------------------------|
     g---7----1--11-2-22-1-1----|
     d-----5--2--22-2-22-2-2----|
     a--------2--22-1-11-2-2----|
     e--------0--00-0-00-0-0----| (play eight times for each verse)
              -----pm-----------|

    Chorus:

     e----00000000000000000---------------------------------------------|
     b----33333333333333330---------------------------------------------|
     g----22222222222222221---7----1-11-2-22-1-1---7----1-11-2-22-1-1---|
     d----00000000222222222-----5--2-22-2-22-2-2-----5--2-22-2-22-2-2---|
     a--------------------2--------2-22-1-11-2-2--------2-22-1-11-2-2---|
     e--------------------0--------0-00-0-00-0-0--------0-00-0-00-0-0---| (play
 twice for each chorus)


Thats it folks, pretty simple really. Comments are most welcome.
88.

HJ.
Tap to rate this tab
 
# A B C D E F G H I J K L M N O P Q R S T U V W X Y Z