Guitaretab - guitar tabs
Song name
# A B C D E F G H I J K L M N O P Q R S T U V W X Y Z

Skrewdriver - Murder Squad tab

I know its from the blue eyed devils but this is the reason why I can put it on 
its a great song to play.

Blue Eyed Devils  Murder Squad tab

maybe there are some mistakes, I done this by hearing. so here ya' go

E|----------------------------------------------------------------------------|
b|----------------------------------------------------------------------------|
g|----------------------------------------------------------------------------|
d|----------------------------------------------------------------------------|
a|-7-----------------------------7--------------------------------------------|
e|-5-----------------------------5--------------------------------------------|

E|----------------------------------------------------------------------------|
b|----------------------------------------------------------------------------|
g|----------------------------------------------------------------------------|2x
d|----------------------------------------------------------------------------|
a|-------7-7-------7-7---7--------5-5-------7-7--7-7-7------------------------|
e|-------5-5-8-7-5-5-5---5-8-7-5--3-3-7-8-7-5-5--5-5-5------------------------|

E|----------------------------------------------------------------------------|
b|----------------------------------------------------------------------------|
g|----------------------------------------------------------------------------|
d|----------------------------------------------------------------------------|
a|-----7-7--7-7-7---10--10-10--10--10-10---5-5--5-5-5--7--7-7--7--7-7---------|
e|-----5-5--5-5-5----8---8--8---8---8--8---3-3--3-3-3--5--5-5--5--5-5---------|

E|----------------------------------------------------------------------------|
b|----------------------------------------------------------------------------|
g|----------------------------------------------------------------------------|
d|----------------------------------------------------------------------------|
a|-----7-7--7-7-7---10--10-10--10--10-10---12-12--12-12-12---7-7--7-7-7-------|
e|-----5-5--5-5-5----8--8---8---8---8--8---10-10--10-10-10---5-5--5-5-5-------|

E|----------------------------------------------------------------------------|
b|----------------------------------------------------------------------------|
g|----------------------------------------------------------------------------|
d|----------------------------------------------------------------------------|
a|----7-x-x-7-x-x-10-x-x-10-x-x-5-x-x-5-x-x-7-x-x-7-x-x-----------------------|
e|----5-x-x-5-x-x--8-x-x--8-x-x-3-x-x-3-x-x-5-x-x-5-x-x-----------------------|

E|----------------------------------------------------------------------------|
b|----------------------------------------------------------------------------|
g|----------------------------------------------------------------------------|
d|----------------------------------------------------------------------------|
a|----7-x-x-7-x-x-10-x-x-10-x-x-12-x-x-12-x-x-7-x-x-7-x-x---------------------|
e|----5-x-x-5-x-x--8--x-x-8-x-x-10-x-x-10-x-x-5-x-x-5-x-x---------------------|

E|----------------------------------------------------------------------------|
b|----------------------------------------------------------------------------|
g|----------------------------------------------------------------------------|
d|----------------------------------------------------------------------------|
a|-----7-7--7-7-7--10--10-10--10--10-10---5-5--5-5-5--7--7-7--7--7-7----------|
e|-----5-5--5-5-5---8---8--8---8---8--8---3-3--3-3-3--5--5-5--5--5-5----------|


E|----------------------------------------------------------------------------|
b|----------------------------------------------------------------------------|
g|----------------------------------------------------------------------------|
d|----------------------------------------------------------------------------|
a|-7-7--7-7-7---10--10-10--10--10-10---12-12--12-12-12--14--14-14--14--14-14--|
e|-5-5--5-5-5----8---8--8---8---8--8---10-10--10-10-10--12--12-12--12--12-12--|

Refrain
E|----------------------------------------------------------------------------|
b|----------------------------------------------------------------------------|
g|----------------------------------------------------------------------------|
d|----------------------------------------------------------------------------|
a|----9-7-5-4-2-----9-7-5-4-2-----9-7-10-10-12---9-7-5-4-2--------------------|
e|----7-5-3-2-0-----7-5-3-2-0-----7-5--8--8-10---7-5-3-2-0--------------------|
[ Tab from: http://www.guitaretab.com/s/skrewdriver/118340.html ]
E|----------------------------------------------------------------------------|
b|----------------------------------------------------------------------------|
g|----------------------------------------------------------------------------|2x
d|----------------------------------------------------------------------------|
a|-------7-7-------7-7---7--------5-5-------7-7--7-7-7------------------------|
e|-------5-5-8-7-5-5-5---5-8-7-5--3-3-7-8-7-5-5--5-5-5------------------------|

E|----------------------------------------------------------------------------|
b|----------------------------------------------------------------------------|
g|----------------------------------------------------------------------------|
d|----------------------------------------------------------------------------|
a|-----7-7--7-7-7---10--10-10--10--10-10---5-5--5-5-5--7--7-7--7--7-7---------|
e|-----5-5--5-5-5----8---8--8---8---8--8---3-3--3-3-3--5--5-5--5--5-5---------|


E|----------------------------------------------------------------------------|
b|----------------------------------------------------------------------------|
g|----------------------------------------------------------------------------|
d|----------------------------------------------------------------------------|
a|-----7-7--7-7-7---10--10-10--10--10-10---12-12--12-12-12---7-7--7-7-7-------|
e|-----5-5--5-5-5----8---8--8---8---8--8---10-10--10-10-10---5-5--5-5-5-------|

E|----------------------------------------------------------------------------|
b|----------------------------------------------------------------------------|
g|----------------------------------------------------------------------------|
d|----------------------------------------------------------------------------|
a|----7-x-x-7-x-x-10-x-x-10--x-x-5-x-x-5-x-x-7-x-x-x-x-x----------------------|
e|----5-x-x-5-x-x--8-x-x--8--x-x-3-x-x-3-x-x-5-x-x-x-x-x----------------------|

E|----------------------------------------------------------------------------|
b|----------------------------------------------------------------------------|
g|----------------------------------------------------------------------------|
d|----------------------------------------------------------------------------|
a|----7-x-x-7-x-x-10-x-x-10-x-x-12-x-x-12-x-x-14-x-x-14-x-x-------------------|
e|----5-x-x-5-x-x--8-x-x--8-x-x-10-x-x-10-x-x-12-x-x-12-x-x-------------------|

Refrain
E|----------------------------------------------------------------------------|
b|----------------------------------------------------------------------------|
g|----------------------------------------------------------------------------|
d|----------------------------------------------------------------------------|
a|----9-7-5-4-2-----9-7-5-4-2-----9-7-10-10-12---9-7-5-4-2--------------------|
e|----7-5-3-2-0-----7-5-3-2-0-----7-5--8--8-10---7-5-3-2-0--------------------|

Solo
E|----------------------------------------------------------------------------|
b|----------------------------------------------------------------------------|
g|----------------------------------------------------------------------------|
d|----------------------------------9-10--------------------10-10-10-9--------|
a|------7-8--------8-7-----------------------7-8--------8-7-------------------|
e|--5-5-----8-8-8-----8-8-8-7-5-5-5------5-5-----8-8-8------------------------|


E|----------------------------------------------------------------------------|
b|----------------------------------------------------------------------------|
g|----------------------------------------------------------------------------|
d|--------------------7-7-7-7-7-7-7-7-9-9-9-9-10-10-12-12---------------------|
a|--10-10-10-8-7h8p7----------------------------------------------------------|
e|----------------------------------------------------------------------------|


E|----------------------------------------------------------------------------|
b|----------------------------------------------------------------------------|
g|----------------------------------------------------------------------------|
d|----------------------------------------------------------------------------|
a|----5-5-5-5-5-5-5-5-5-5-5-5-5-5-5-5-5-5-5-5-5-5-5-5-5-5-5-5-5-5-5-5---------|
e|----3-3-3-3-3-3-3-3-3-3-3-3-3-3-3-3-3-3-3-3-3-3-3-3-3-3-3-3-3-3-3-3---------|
          |-------------------------------------------------------------------| P.M.


E|----------------------------------------------------------------------------|
b|----------------------------------------------------------------------------|
g|----------------------------------------------------------------------------|4x
d|----------------------------------------------------------------------------|
a|-------7-7-------7-7---7--------5-5-------7-7--7-7-7------------------------|
e|-------5-5-8-7-5-5-5---5-8-7-5--3-3-7-8-7-5-5--5-5-5------------------------|

Refrain
E|----------------------------------------------------------------------------|
b|----------------------------------------------------------------------------|
g|----------------------------------------------------------------------------|
d|----------------------------------------------------------------------------|
a|----9-7-5-4-2-----9-7-5-4-2-----9-7-10-10-12---9-7-5-4-2----2---------------|
e|----7-5-3-2-0-----7-5-3-2-0-----7-5--8--8-10---7-5-3-2-0----0---------------|
Related for Murder Squad tab