Song name
# A B C D E F G H I J K L M N O P Q R S T U V W X Y Z

Skrewdriver - Simple Man tab

----------------------------------------------------------------------------
			     SIMPLE MAN - Skrewdriver
----------------------------------------------------------------------------
Tabbed by: Benjamin Gheysels
Date: 2006-03-10
Album: Warlord

Tuning: standard tuning

| h  hammer-on
| p  pull-off
| ~  vibrato
| b  bend
| r  release
| .  mute note
| ps pick scrape


intro: rhythm guitar.

      C          G          A minor
e|----0----------3----------0-----0-----------|
B|----1----------0----------1-----1-----------|
G|----0----------0----------2-----2-----------|
D|----2----------0----------2-----2-----------|
A|----3----------2----------0-----0-----------|
E|----0----------3----------0-----0-----------|


This is the lead for the intro. Listen to the record to get the timing 
of the bend and release right.

e|-------------------------------------------------------------|
B|-------------------------------------------------------------|
G|---7b(9)hold-r7-------------------5hold-----------9hold------|
D|-----------------10-7hold-----5-7-------------5-7------------|
A|-------------------------------------------------------------|
E|-------------------------------------------------------------|

e|------------------------------------|
B|------------------------------------|
G|---5-7-9-9----7-5h7p5-7/9hold-------|
D|------------------------------------|
A|------------------------------------|
E|------------------------------------|


verse riff: play this 8 times. Strike each chord once.

     A minor    C      G      A minor
e|----0---------0------3-------0-----------|
B|----1---------1------0-------1-----------|
G|----2---------0------0-------2-----------|
D|----2---------2------0-------2-----------|
A|----0---------3------2-------0-----------|
E|----0---------0------3-------0-----------|


chorus: same as verse riff, but now you strum the chords more. Play 4 times.

verse: 4 times.

chorus: 4 times.


Solo: there seem to be 2 guitars in the beginning and towards the end, 
but I'll just tab out one. The second guitar just plays these notes in a
higher octave I think. Rhythm guitar continues with verse riff as background.

e|------------------------------------------------------------------|
B|------------------------------------------------------------------|
G|--7b(9)hold-------------------------------------------------------|
D|------------10hold----7hold----5-7hold-----5-7-5-7-5-7-5-7-7hold--|
A|------------------------------------------------------------------|
E|------------------------------------------------------------------|

e|------------------------------------------------|
B|------------------------------------------------|
G|--7-5-7-7b(9)hold-------------------------------|
D|----------------------10hold-----7-10-7hold-----|
A|------------------------------------------------|
E|------------------------------------------------|

e|--------------------------10h12p10h12p10----12hold---|
B|-----------------10-12-13----------------13----------|
G|-------7----9-12-------------------------------------|
D|--7-10---10------------------------------------------|
A|-----------------------------------------------------|
E|-----------------------------------------------------|


chorus: 4 times

verse: 4 times

chorus: repeat till end. There's a solo as well, but I couldn't hear it well 
        enough to try and tab it out.


That's it folks. Enjoy!



============================================================================

============================================================================
Tap to rate this tab
 
# A B C D E F G H I J K L M N O P Q R S T U V W X Y Z