Song name
# A B C D E F G H I J K L M N O P Q R S T U V W X Y Z

Skrewdriver - Blood And Honour tab

Blood and honour By: Skrewdriver

Interlude/verse:

    G                       F
E|--------------------------------------------------|
B|--------------------------------------------------|
G|--------------------------------------------------|
D|--------------------------------------------------|
A|--5--5--5--5--5--5--5--5--3--3--3--3--3--3--3--3--|
E|--3--3--3--3--3--3--3--3--1--1--1--1--1--1--1--1--|
       .  .     .  .     .     .  .     .  .     .

    C
E|--------------------------------------------------|
B|--------------------------------------------------|
G|--------------------------------------------------|
D|--2--2--2--2--2--2--2--2--3--2--2--0--0--2--2--0--|
A|--3--3--3--3--3--3--3--3--3--3--3--3--3--3--3--3--|
E|--------------------------------------------------|
       .  .     .  .     .

Chorus:
    G          C
E|---------------------------------|
B|---------------------------------|
G|---------------------------------|
D|-------------5--5--5----5--5--5--|
A|--5----5--5--3--3--3----3--3--3--|
E|--3----3--3----------------------| X3

    G                    D
E|--------------------------------------------|
B|--------------------------------------------|
G|--------------------------------------------|
D|-----------------------7--7--7--7--7--7--7--|
A|--5--5--5--5--5--5--5--5--5--5--5--5--5--5--|
E|--3--3--3--3--3--3--3-----------------------|

Solo:

E|----------------13----12----------------------------------13----12----15----|
B|----15----13----------------------------12----15----13----------------------|
G|----------------------------12----12----------------------------------------|
D|----------------------------------------------------------------------------|
A|----------------------------------------------------------------------------|
E|----------------------------------------------------------------------------|

E|----------------------------13----12----------------------------------13----12----15----|
B|----------12----15----13----------------------------12----15----13----------------------|
G|----12----------------------------------12----12----------------------------------------|
D|----------------------------------------------------------------------------------------|
A|----------------------------------------------------------------------------------------|
E|----------------------------------------------------------------------------------------|
Tap to rate this tab
 
# A B C D E F G H I J K L M N O P Q R S T U V W X Y Z