Song name
# A B C D E F G H I J K L M N O P Q R S T U V W X Y Z

Skrewdriver - Before The Night Falls tab

Before The Night Falls by: Skrewdriver

Main riff:
    C                 G                 Bb                F
E|--------------------------------------------------------------------------|
B|--------------------------------------------------------------------------|
G|--------------------------------------------------------------------------|
D|--5--5--5--5--5--5--------------------3--3--3--3--3--3--------------------|
A|--3--3--3--3--3--3--5--5--5--5--5--5--1--1--1--1--1--1--3--3--3--3--3--3--|
E|--------------------3--3--3--3--3--3--------------------1--1--1--1--1--1--|

Chorus:
    C       Bb F    C       Bb F
E|--------------------------------|
B|--------------------------------|
G|--------------------------------|
D|--5--5----3-------5--5----3-----|
A|--3--3----1--3----3--3----1--3--|
E|-------------1---------------1--|

Bridge:
    C               G                Bb              F
E|------------------------------------------------------------------|
B|------------------------------------------------------------------|
G|------------------------------------------------------------------|
D|--5--5--5-5-5-5--------------------3--3--3-3-3-3------------------|
A|--3--3--3-3-3-3---5--5--5-5-5-5----1--1--1-1-1-1---3--3--3-3-3-3--|
E|------------------3--3--3-3-3-3--------------------1--1--1-1-1-1--|
          . . . .         . . . .          . . . .         . . . .

Lead:

E|--7/8--8--8--7/8--8--8--10--8--8--8--8--8--   --7/8--8--8--7/8--8--8--10--8----------------|
B|--7/8--8--8--7/8--8--8--10--8--8--8--8--8--   --7/8--8--8--7/8--8--8--10--8----------------|
G|-------------------------------------------   -------------------------------10--8---------|
D|-------------------------------------------   --------------------------------------10--8--|
A|-------------------------------------------   ---------------------------------------------|
E|-------------------------------------------X3 ---------------------------------------------|
Tap to rate this tab
# A B C D E F G H I J K L M N O P Q R S T U V W X Y Z