Song name
# A B C D E F G H I J K L M N O P Q R S T U V W X Y Z

Skrewdriver - Poland tab

Poland by: Skrewdriver

Intro:

E|--------------------------------------------------|
B|--------------------------------------------------|
G|--------------------------------------------------|
D|--------------------------------------------------|
A|--2--2--2--2--2--2--2--2--2--2--2--0--2--5--2--0--|
E|--0--0--0--0--0--0--0--0--0--0--0--0--0--0--0--0--| X2
    .  .  .  .  .  .  .  .  .  .  .  .  .  .  .  .

Main Riff:

E|-----------------------------------------|
B|-----------------------------------------|
G|-----------------------------------------|
D|-----------------4--2--2--2--2--2--2--2--|
A|--2--2--2--2--2--2--0--0--0--0--0--0--0--|
E|--0--0--0--0--0--------------------------|
       .  .  .  .        .  .  .  .  .  .

Chorus:

E|-----------------------------------------|
B|-----------------------------------------|
G|-----------------------------------------|
D|----4--------2----------------------2----|
A|----2--------0--------2--------5----0----|
E|----------------------0--------3---------|
Tap to rate this tab
 
# A B C D E F G H I J K L M N O P Q R S T U V W X Y Z