Song name
# A B C D E F G H I J K L M N O P Q R S T U V W X Y Z

Skrewdriver - Prisoner Of Peace tab

Prisoner Of Peace by: Skrewdriver

Intro/verse:

E|-----------------------------------------------------------------|
B|-----------------------------------------------------------------|
G|-----------------------------------------------------------------|
D|-----------------2-2-2-2-2-2-2-2-4-4-4-4-4-4-4-4-2-2-2-2-2-2-2-2-|
A|-2-2-2-2-2-2-2-2-0-0-0-0-0-0-0-0-2-2-2-2-2-2-2-2-0-0-0-0-0-0-0-0-|
E|-0-0-0-0-0-0-0-0-------------------------------------------------|
   . . . . . . . . . . . . . . . . . . . . . . . . . . . . . . . .

Chorus:

E|-----------------|
B|-----------------|
G|--4----2---------|
D|--2----0----2----|
A|------------0----|
E|-----------------|
Tap to rate this tab
 
# A B C D E F G H I J K L M N O P Q R S T U V W X Y Z