Song name
# A B C D E F G H I J K L M N O P Q R S T U V W X Y Z

Skrewdriver - The Snow Fell tab

Help us improve GuitareTab! Take a short survey!
The Snow Fell


E                      A                   E
He sat in a room, in a square the color of blood
E                          A                          E
He'd rule the whole world, if there was a way that he could
E                 D            A                      E
He'd sit and he'd stare at the minarets on top of the towers
E              D            A                             E
For he was the beast, as he hatched his new plans to gain power

Chorus:
       G    D     A                       E
As the snow fell, covering the dreams and ideals
        G    D     A                          E
And the snow fell, freezing the blood and the wheels
       G    D      A                         E
And the snow fell, they had to keep warm for survival
       G    D      A                         E
And the snow fell, and defeated the beast's only rivals

They took the old roads, that Napoleon had taken before
They fought as the forces of light against a darkness in a holy war
One day they were looking out in the sunshine on the cornflowers
The next day they were freezing to death in the snow and the ice cold showers

Chorus

Then came the deadly road back on the steppes of their retreat
The cold racked their bodies, but worse was the pain of defeat
And people who had hailed them once now turned and looked away
These people now knew that the beast was on his way

Chorus

Solo:
E|-----------------------------------------------||
B|---------------------------8-------------------||
G|--7/9--7--9-9-9-9-----7/9-----11--9--7-7--9----||
D|------------------9----------------------------||
A|-----------------------------------------------||
e|-----------------------------------------------||

E|--------------------------------------------------||
B|--------------------------------------------------||
G|--7/9--9/7-----------------7/9--9/7---------------||
D|------------7/9--9-9-9---------------7/9-9-9-9----||
A|------------------------7-----------------------7-||
e|--------------------------------------------------||

Chorus

You finally came back to the borders of your Fatherland
Now enemies came, traitors everywhere at hand
Many people had fought and died, knowing that they had to win
And still it sickens my heart to see the picture of the Red flag in Berlin

Chorus


*****
Skrewdriver - Ian Stuart
Tabbed by Mattiasb88
http://www.racialpride.com/
Related for The Snow Fell tab