Song name
# A B C D E F G H I J K L M N O P Q R S T U V W X Y Z

Skrewdriver - Boots And Braces tab

P = pull-off
H = hammer-on
/ = slide
x = mute
()= silent note
b = half note bend
^ = full note bend
r = bend release



e|----------------------------------------------------------------|
b|----------------------------------------------------------------|
g|----------------------------------------------------------------|
d|-----------------5---5---5-5-5---7-7-9-7-7-7-9-7-7-7-9-7-7-7-9--|
a|-5---5---5-5-5-x-3---3---3-3-3---5-5-5-5-5-5-5-5-5-5-5-5-5-5-5--|
e|-3---3---3-3-3-x------------------------------------------------|

     00:05
e|-----3---3-3-3-------5---5-5-5----------------------------------|
b|-----3---3-3-3-------5---5-5-5----------------------------------|
g|-----4---4-4-4-------5---5-5-5----------------------------------|
d|-----5---5-5-5---5---5---5-5-5---7-7-9-7-7-7-9-7-7-7-9-7-7-7-9--|
a|-5---5---5-5-5-x-3---3---3-3-3---5-5-5-5-5-5-5-5-5-5-5-5-5-5-5--|
e|-3---3---3-3-3-x------------------------------------------------|

00:10
Verse 

Guitarr I
e|-----3-3---3-3-3-----5-5---5-5----------------------------------|
b|-----3-3---3-3-3-----5-5---5-5----------------------------------|
g|-----4-4---4-4-4-----5-5---5-5----------------------------------|
d|-----5-5---5-5-5-5---5-5---5-5---7-7-9-7-7-7-9-7-7-7-9-7-7-7-9--|
a|-5---5-5---5-5-5-3---3-3---3-3---5-5-5-5-5-5-5-5-5-5-5-5-5-5-5--|
e|-3---3-3---3-3-3------------------------------------------------|---\
                                              play these riffs 4 times \  
Guitarr II                                                             /
e|-----3-3---3-3-3-----0-0---0-0----------------------------------|---/
b|-----3-3---3-3-3-----1-1---1-1---3-3-3-3-3-3-3-3-3-3-3-3-3-3-3--|
g|-----0-0---0-0-0-----0-0---0-0---2-2-4-2-2-2-4-2-2-2-4-2-2-2-4--|
d|-----0-----------2---------------0-0-0-0-0-0-0-0-0-0-0-0-0-0-0--|
a|-2---------------3----------------------------------------------|
e|-3--------------------------------------------------------------|

           
The part just before the chorus. (Pre-CHorus)

                      00:30

e|-3---3---3-3-3---1---1---1-1-1---5---5---5-5-5---3---3---3-3-3--|
b|-3---3---3-3-3---1---1---1-1-1---5---5---5-5-5---3---3---3-3-3--|--------|
g|-4---4---4-4-4---2---2---2-2-2---5---5---5-5-5-x-4---4---4-4-4--| Play 2 |
d|-5---5---5-5-5-x-3---3---3-3-3-x-5---5---5-5-5-x-5---5---5-5-5--|  Times |
a|-5---5---5-5-5-x-3---3---3-3-3-x-3---3---3-3-3-x-5---5---5-5-5--|--------|
e|-3---3---3-3-3-x-1---1---1-1-1-x-----------------3---3---3-3-3--|

Chorus 00:40
           boots and braces...
e|-3---3---x-x-x-x-1---1---x-x-x-x-5---5---x-x-x-x-3---3---x-x-x-x|
b|-3---3---x-x-x-x-1---1---x-x-x-x-5---5---x-x-x-x-3---3---x-x-x-x|--------|
g|-4---4---x-x-x-x-2---2---x-x-x-x-5---5---x-x-x-x-4---4---x-x-x-x|Play 4  |
d|-5---5---x-x-x-x-3---3---x-x-x-x-5---5---x-x-x-x-5---5---x-x-x-x| Times  |
a|-5---5---x-x-x-x-3---3---x-x-x-x-3---3---x-x-x-x-5---5---x-x-x-x|--------|
e|-3---3---x-x-x-x-1---1---x-x-x-x-----------------3---3---x-x-x-x|



Verse 01:01

Guitarr I     
e|-----3-3---3-3-3-----5-5---5-5----------------------------------|
b|-----3-3---3-3-3-----5-5---5-5----------------------------------|
g|-----4-4---4-4-4-----5-5---5-5----------------------------------|
d|-----5-5---5-5-5-5---5-5---5-5---7-7-9-7-7-7-9-7-7-7-9-7-7-7-9--|
a|-5---5-5---5-5-5-3---3-3---3-3---5-5-5-5-5-5-5-5-5-5-5-5-5-5-5--|
e|-3---3-3---3-3-3------------------------------------------------|---\
                                              play these riffs 2 times \  
Guitarr II                                                             /
e|-----3-3---3-3-3-----0-0---0-0----------------------------------|---/
b|-----3-3---3-3-3-----1-1---1-1---3-3-3-3-3-3-3-3-3-3-3-3-3-3-3--|
g|-----0-0---0-0-0-----0-0---0-0---2-2-4-2-2-2-4-2-2-2-4-2-2-2-4--|
d|-----0-----------2---------------0-0-0-0-0-0-0-0-0-0-0-0-0-0-0--|
a|-2---------------3----------------------------------------------|
e|-3--------------------------------------------------------------|      

Part just before chorus...

              01:11
e|-3---3---3-3-3---1---1---1-1-1---5---5---5-5-5---3---3---3-3-3--|
b|-3---3---3-3-3---1---1---1-1-1---5---5---5-5-5---3---3---3-3-3--|--------|
g|-4---4---4-4-4---2---2---2-2-2---5---5---5-5-5-x-4---4---4-4-4--| Play 2 |
d|-5---5---5-5-5-x-3---3---3-3-3-x-5---5---5-5-5-x-5---5---5-5-5--|  Times |
a|-5---5---5-5-5-x-3---3---3-3-3-x-3---3---3-3-3-x-5---5---5-5-5--|--------|
e|-3---3---3-3-3-x-1---1---1-1-1-x-----------------3---3---3-3-3--|

        Chorus  
01:21
           boots and braces...
e|-3---3---x-x-x-x-1---1---x-x-x-x--------------------------------|
b|-3---3---x-x-x-x-1---1---x-x-x-x--------------------------------|--------|
g|-4---4---x-x-x-x-2---2---x-x-x-x--------------------------------|  Play 4|
d|-5---5---x-x-x-x-3---3---x-x-x-x-7-7-9-7-7-7-9-7-7-7-9-7-7-7-9--|   Times|
a|-5---5---x-x-x-x-3---3---x-x-x-x-5-5-5-5-5-5-5-5-5-5-5-5-5-5-5--|--------|
e|-3---3---x-x-x-x-1---1---x-x-x-x--------------------------------|
                                                ^ 
                                                |comes in here on my version 
Solo--------------------------------------------|
|-----------------------------------------------------------------|
|-----------------------------------------------5-5-5-5-5-5-5-5--^|
|-----------------------------------------------5b--5b--5b--5br5-5|
|-----------------------------------------------------------------|
|-----------------------------------------------------------------|
|-----------------------------------------------------------------|

|-----------------------------------------------------------------|
|-8-8-8-8---8-8-13-13-13-13131313-15-1515-1515-15-15-15-15-151515-|
|-7-7-7b7^--7br-12b12b12-12121212-14b1414b1414-14-14-14b14-141414b|
|---------------------------b-------------------------------------|
|-----------------------------------------------------------------|
|-----------------------------------------------------------------|

|-17--1717--17-17-15--1515--15-15-14--1414--14-14-17--1717--17-17-|
|-17--1717--17-17-15--1515--15-15-15--1515--15-15-17--1717--17-17-|
|-18--1818--18-18-16--1616--16-16-14--1414--14-14-18--1818--18-19-|-->Play2 
|-----------------------------------------------------------------|    Times
|-----------------------------------------------------------------|
|-----------------------------------------------------------------|

On my version, during the solo the 2nd guitar plays Verse riff once and
the pre-chorus riff twice, but on the original i guess 2nd guitar plays 
Verse riff twice as well...ah whatever.

after solo, play:

(Chorus) riff x 4
(Verse) riff x 2
(Pre-Chorus) riff x 2
(chorus) riff x 6

And thats it!

I didnt tab the solo so well... its just to give an idea of how its played.
Tap to rate this tab
# A B C D E F G H I J K L M N O P Q R S T U V W X Y Z