Song name
# A B C D E F G H I J K L M N O P Q R S T U V W X Y Z

Skrewdriver - White Power tab

Help us improve GuitareTab! Take a short survey!
Band:/ Skrewdriver
Song Name:/ White Power

Tuning:/ Standard

E------------------------------|
B------------------------------|
G------------75----------75----|
D-5555555555575555555555575----|
A-5555555555553555555555553----|
e-33333333333--3333333333------|

^that riff is continued through most of the song
till the chorus when they play;
E------------------------------|
B------------------------------|
G------------75----------75----|
D-5555555555575555555555575----|
A-5555555555553555555555553----|
e-33333333333--3333333333------|

'before it gets to late' (the last line of the chorus they play this bit); 
E-------------|
B-------------|
G-77775555----|
D-77775555----|
A-77775555----|
e-------------|


then at 1:04 secs
they play;

E----------------|
B----------------|
G-75-------------|
D-755555555555---|
A-755555555555---|
e---3333333333---|


then they go back to that old riff; 

E------------------------------|
B------------------------------|
G------------75----------75----|
D-5555555555575555555555575----|
A-5555555555553555555555553----|
e-33333333333--3333333333------|


Thats it.
Related for White Power tab