Guitaretab - guitar tabs
Song name
# A B C D E F G H I J K L M N O P Q R S T U V W X Y Z

Skrewdriver - Night Trains tab

--------------------------------------------------------------------------
			     NIGHT TRAINS - Skrewdriver
--------------------------------------------------------------------------
Tabbed by: Benjamin Gheysels
Date: March 4th, 2006 

Tuning: standard tuning

| h  hammer-on
| p  pull-off
| ~  vibrato
| b  bend
| .  mute note
| ps pick scrape


lyrics at the end of the tab


intro: rhythm guitar
	
	E minor				E minor
e|-----------0--------0-----------------0------------|
B|---------0---0------0ring-------------0------------|
G|-------0-------0----------------------0------------|
D|-----2-----------2--------------------2------------|
A|---2----------------------------------2------------|
E|-0-------------------------------3-2--0------------|


Keep strumming this chord, then the lead guitar plays this little 
lead, while the rhythm guitar plays these chords and the slight variations:
					________________________________|
					|
					|
    D	     A				D		 A
e|---------------------------7/12hold---2-2-2-3-2-0-2-2--0-0-------------|
B|--------------------------------------3-3-3-3-3-3-3-3--2-2-2-3-2-0-2-2-|
G|-7/9hold--7hold--7/6hold--------------2-2-2-2-2-2-2-2--2-2-2-2-2-2-2-2-|
D|--------------------------------------0-0--------------2-2-2-2-2-2-2-2-|
A|--------------------------------------0-0--------------0-0-------------|
E|--------------------------------------0-0--------------0-0-------------|


Verse riff: E minor, D, A. Don't forget the small variations of the D and 
A chord described above! Repeat this during singing.


bridge between verse and chorus: A, E minor (play fast)


chorus: C, G, F, C + variation. Repeat it once (second time without 
variation)

   C	G	F	C  variation
e|-0----3-------1-------0-----0------------------|
B|-1----3-------1-------1-----0------------------|
G|-0----0-------2-------0-----0------------------|
D|-2----0-------3-------2-----2------------------|
A|-3----2-------3-------3-----3------------------|
E|-0----3---------------0-----0------------------|


during the chorus, the lead guitar plays these leads:
	first time			second time
    C	     G				C	 G
e|------------------------------------------------------------|
B|------------------------------------------------------------|
G|--9\5hold--4hold----------------------9\5hold--4h5p4hold----|
D|------------------------------------------------------------|
A|------------------------------------------------------------|
E|------------------------------------------------------------|


and also this at the end of the chorus:
[ Tab from: http://www.guitaretab.com/s/skrewdriver/69758.html ]
e|-----15-14-----------------------------|
B|--12-------12hold----------------------|
G|---------------------------------------|
D|---------------------------------------|
A|---------------------------------------|
E|---------------------------------------|


Now repeat verse, bridge and chorus

solo (rhythm guitar plays verse chords: E minor, D, A). This ain't 100%
accurate kids, but close enough.

e|-----15-14-------------------------------------------------------|
B|--12-------12hold----12\10-10hold----8h10p8---10-----------------|
G|-------------------------------------------------12-11hold-------|
D|-----------------------------------------------------------------|
A|-----------------------------------------------------------------|
E|-----------------------------------------------------------------|

e|-----------------------------------------------------------------|
B|----------------------------------------------------12hold-------|
G|--12-14-12-11----------------------------------------------------|
D|--------------14hold----11-12-11hold----11h12p11-12--------------|
A|-----------------------------------------------------------------|
E|-----------------------------------------------------------------|

e|--------12hold---10-10hold-----10/14-15-14hold---15-17--15---14--12hold-|
B|--12-12-----------------------------------------------------------------|
G|------------------------------------------------------------------------|
D|------------------------------------------------------------------------|
A|------------------------------------------------------------------------|
E|------------------------------------------------------------------------|

e|-----------12-15-12-----------------------------------------------------|
B|--------12----------12hold----------------------------------------------|
G|-----12-----------------------------12p11\9hold-----9h11h12-11-9-7hold--|
D|--14--------------------------14-14-------------------------------------|
A|------------------------------------------------------------------------|
E|------------------------------------------------------------------------|

e|----------------------------------------------------------|
B|-------------------------------------------12hold---------|
G|-7-9-11-9-7-----------------------------------------------|
D|------------11hold----11h12p11hold--9---------------------|
A|---------------------------------------10-----------------|
E|----------------------------------------------------------|

e|---------------------15hold---14-15-14hold---15-17hold-15hold-14-12hold-|
B|------------------12----------------------------------------------------|
G|---------------12-------------------------------------------------------|
D|-------9/12-14----------------------------------------------------------|
A|-10-10------------------------------------------------------------------|
E|------------------------------------------------------------------------|


bridge

chorus

verse

bridge

chorus: play 2 times

finish with E minor chord
Related for Night Trains tab