Guitaretab - guitar tabs
Song name
# A B C D E F G H I J K L M N O P Q R S T U V W X Y Z

Skrewdriver - Strikeforce tab

Verse\Intro:
Guitar 1:
e|--------------------|
b|--------------------|
g|--------------------|
d|--9-9-99----2-2-22--|
a|--9-9-99----2-2-22--|
e|--7-7-77----0-0-00--|
[ Tab from: http://www.guitaretab.com/s/skrewdriver/79000.html ]
Guitar 2:
e|---------------|
b|---------------|
g|---------------|
d|--9---------2--|
a|--9---------2--|
e|--7---------0--|


Chorus
e|-----------------------|
b|-----------------------|
g|-----------------------|
d|--9-9--99---22---7-77--|
a|--9-9--99---22---7-77--|
e|--7-7--77---00---5-55--|
Strike Force White Survival

The second verse is the same as the first with more strumming and a palm mute. That's it!
Related for Strikeforce tab
Advertisement will be closed in 10 seconds