Song name
# A B C D E F G H I J K L M N O P Q R S T U V W X Y Z

Skrewdriver - Voice Of Britan tab

Hey.

This is Voice of Britan, off the Voice of Britan album. Whilst the riffs themselves are
the hard bit is to know when to play them. An (x) is a muted note,which is achieved by
placing your fingers on the chord, but not pressing down, and then strumming. I tried to 
with the rythm, but for perfection listen to the song. I divided the tune into three riffs.

Here is riff A:

E--------------------------------|
B--------------------------------|
G--55-xxxx-----------------------|
D--55-xxxx-55-xxxx-33-xxxx-55----|
A--33-xxxx-55-xxxx-33-xxxx-55----|
E----------33-xxxx-11-xxxx-33----|

Here is riff B

E----------------------------------|
B----------------------------------|
G--5-55-55-------------------------|
D--5-55-55-5-55-55-3-33-33-5-55-55-|
A--3-33-35-5-55-55-3-33-33-5-55-55-|
E----------3-33-33-1-11-11-3-33-33-|

Here's riff C:

E----------------------------------|
B----------------------------------|
G --5------------------------------|
D---5---3---5----------------------|
A---3---3---5----------------------|
E-------1---3----------------------|


Right, now for the hard bit, the riff order:

Riff A X 2
Riff B X 6
Riff C X 2
Riff B X 6
Riff C X 2
Riff B x 6
Riff C X 2
Riff A X 2
Riff C X 4
Ends on a C chord

Any Comments, queries or praise, email, or add me at oddgit_8@hotmail.com

Cheers and 88

HJ
Tap to rate this tab
# A B C D E F G H I J K L M N O P Q R S T U V W X Y Z