Song name
# A B C D E F G H I J K L M N O P Q R S T U V W X Y Z

Skrewdriver - White Rider tab

Screwdriver
"White Rider"
Standard Tuning

Simple Song but sounds really good. Have fun.

Intro:

Gtr 1.
|------------------------------------------------------------------------------------------------|
|------------------------------------------------------------------------------------------------|
|---------------3~---------------------5~-----------------------3~-------------------------------|
|--5~-----------3~--------3~-----------5~----------5~-----------3~--------3~---------------------|
|--5~-----------1~--------3~-----------3~----------5~-----------1~--------3~---------------------|
|--3~---------------------1~-----------------------3~---------------------1~---------------------|


Gtr 2.
|------------------------------------------------------------------------------------------------|
|------------------------------------------------------------------------------------------------|
|------------------------------------------------------------------------------------------------|
|--5~-----------3~---3p0---------------5~----------5~-----------3~---3p0-------------------------|
|--5~------3h5------------h3------3h5--------------5~------3h5------------h3b~-------------------|
|--3~----------------------------------------------3~--------------------------------------------|


Verse:

Gtr 1.
|------------------------------------------------------------------------------------------------|
|------------------------------------------------------------------------------------------------|
|---------------3---------5--------------------------------------3---------5---------------------|
|--5------------3---------5------------5------------5------------3---------5------------5--------|
|--5------------1---------3------------5------------5------------1---------3------------5--------|
|--3-----------------------------------3------------3-----------------------------------3--------|


Gtr 2.
|------------------------------------------------------------------------------------------------|
|------------------------------------------------------------------------------------------------|
|------------------------------------------------------------------------------------------------|
|--5~-----------3~---3p0---------------5~----------5~-----------3~---3p0----------------5~-------|
|--5~------3h5------------h3------3h5--------------5~------3h5------------h3~------3h5-----------|
|--3~----------------------------------------------3~--------------------------------------------|


Chorus:

Gtr 1.
|-------------------------------------------------------------------------------------------------|
|-------------------------------------------------------------------------------------------------|
|--5----------------------5-----------------------5--------------------------------------5--------|
|--5-------------5--------5-------------5---------5------------5-------------3-----------5--------|
|--3-------------5--------3-------------5---------3------------5-------------3-----------3--------|
|----------------3----------------------3----------------------3-------------1--------------------|


Gtr 2.
|-------------------------------------------------------------------------------------------------|
|-------------------------------------------------------------------------------------------------|
|-------------------------------------------------------------------------------------------------|
|--12b~----10p8-----------12b~----10p8-----------12b~----10p8----------------------------10~------|
|----------------10~--------------------10~--------------------10~------10p9p8~----8h10-----------|
|-------------------------------------------------------------------------------------------------|


Gtr 1.
|-------------------------------------------------------------------------------------------------|
|-------------------------------------------------------------------------------------------------|
|--5----------------------5-----------------------3--------------------------5~-------------------|
|--5-------------5--------5-------------5---------3------------3-------------5~-------------------|
|--3-------------5--------3-------------5---------1------------3-------------3~-------------------|
|----------------3----------------------3----------------------1----------------------------------|


Gtr 2.
|-------------------------------------------------------------------------------------------------|
|-------------------------------------------------------------------------------------------------|
|-------------------------------------------------------------------------------------------------|
|--12b~----10p8-----------12b~----10p8------------------------------------------------------------|
|----------------10~--------------------10~-------------------------------------------------------|
|-------------------------------------------------------------------------------------------------|


Solo:

|------------------------------------------------------------------------------------------------|
|------------------------------------------------------------------------------------------------|
|--12----12\10~---------------------------12----12\10~-------------------------------------------|
|--12----12\10~--------10----10\8~--------12----12\10~--------10----10\8~------------------------|
|----------------------10----10\8~----------------------------10----10\8~------------------------|
|-----------------------------------------------------------------------------\\\\\slide\\\\\~---|


Gtr 1.
|------------------------------------------------------------------------------------------------|
|------------------------------------------------------------------------------------------------|
|-----------------5----------------------------5---------3---------------------------5~----------|
|--3--------------5--------3-------------------5---------3-------------3-------------5~----------|
|--3--------------3--------3-------------------3---------1-------------3-------------3~----------|
|--1-----------------------1-------------------------------------------1-------------------------|


Gtr 2.
|------------------------------------------------------------------------------------------------|
|------------------------------------------------------------------------------------------------|
|------------------------------------------------------------------------------------------------|
|--12b~--10p8h10/12b~------12-12--12-12--10p8-----------------8----------------------10~---------|
|---------------------------------------------10~--------8h10---10-10--8~------8h10--------------|
|------------------------------------------------------------------------------------------------|
Tap to rate this tab
# A B C D E F G H I J K L M N O P Q R S T U V W X Y Z