Song name
# A B C D E F G H I J K L M N O P Q R S T U V W X Y Z

Skrewdriver - New Boss tab

Verse:

|-----------------------------|
|-----------------------------|
|--55----555------------5555--|
|--55----555----5-3-----5555--|
|--33----333----5-3-----3333--|
|---------------3-1-----------|

Chorus:

|---------|
|---------|
|--5------|
|--5---3--|  Repeat this as many times needed
|--3---3--|
|------1--|


|------------------|
|------------------|
|--5555------------|
|--5555-5555-3333--|
|--3333-5555-3333--|
|-------3333-1111--|
"Come on and stand beside us"
Tap to rate this tab
# A B C D E F G H I J K L M N O P Q R S T U V W X Y Z