Song name
# A B C D E F G H I J K L M N O P Q R S T U V W X Y Z

Skrewdriver - Our Pride Is Our Loyalty tab

|-----------------------------------|
|-----------------------------------|
|--------5--777-------------7--555--|
|--5-5---5--777----5-5------7--555--|
|--5-5---3--555----5-5------5--333--|
|--3-3-------------3-3--------------|


|----------------|                                |----------------|
|----------------|                                |----------------|
|----------5555--| Repeat twice, and then play..  |----------7777--|
|--5555-33-5555--|                                |--5555-33-7777--|
|--5555-33-3333--|                                |--5555-33-5555--|
|--3333-11-------|                                |--3333-11-------|
"Well I guess you didn't know.."         "I can tell you, it aint you or me"

|-------------|                                  
|-------------|
|--5555-------|
|--5555-5555--|  Play Twice... 
|--3333-5555--|
|-------3333--|
Our pride is our loyalty...

|-----------------|
|--5555------7777-|
|--5555-5555-7777-|   
|--3333-5555-5555-|
|-------3333------|
Our pride is our loyalty to our land...

There you go, it's pretty simple...Just listen to the song for strumming and timing....Enjoy!
Tap to rate this tab
 
# A B C D E F G H I J K L M N O P Q R S T U V W X Y Z