Skrillex - Scary Monsters And Nice Sprites tab

-------------------------------------------------------------------------------
			     SCARY MONSTERS AND NICE SPRITES - Skrillex
-------------------------------------------------------------------------------
Tabbed by:
Email:

Tuning: Standard

Tempo = 140

E ||---------------------------|-------------------------------|
B ||----------------------15---|--13-11------------------------|
G ||o---12-10-12-15----12-------|--------------------10--------|
D ||o--------------------------|-----------------------13------|
A ||---------------------------|--------------13-12------------|
E ||---------------------------|--------13---------------------|


----------------------------|--15----------13-----------|||
----------------------------|-----15-11-------11--------|||
-----------10---------------|-----------12-------12-10-o|||
--12-10----------------12---|--------------------------o|||
--------13----13-10-13------|---------------------------|||
----------------------------|---------------------------|||
Tap to rate this tab
 
# A B C D E F G H I J K L M N O P Q R S T U V W X Y Z