Song name
# A B C D E F G H I J K L M N O P Q R S T U V W X Y Z

Skrillex - Scary Monsters And Nice Sprites tab

Scary monsters and nice sprites


-------------------------------|
-------------------------------|
-------------------------------|
----10-------------------------|
-8------8--11------------------|
---------------10p---8---------|

-----------------------------------------------------------------|
-10----------------------------------10--------------------------|
-----8-------------10------------8--------8----------------------|
--------10--8--7------7--10------------------10------------------|
-----------------------------------------------------------------|
-----------------------------------------------------------------|

------------------------------|
------------------------------|
------------17-----------17---|
--------15------------15------|
-----15-------------15--------|
-15--------------13-----------|
Tap to rate this tab
 
# A B C D E F G H I J K L M N O P Q R S T U V W X Y Z