Song name
# A B C D E F G H I J K L M N O P Q R S T U V W X Y Z

Skrillex - Scary Monsters And Nice Sprites tab

-------------------------------------------------------------------------------
			     Scary Monsters and Nice Sprites - Skrillex
-------------------------------------------------------------------------------
Tabbed by: Hirt
Tuning: Standard

e|-----------------------|------------------------|
B|---------------------15|-------------------18-16|
G|------------15---------|-17-15------------------|
D|---17-15-17-------17---|-------15----15-13------|
A|-----------------------|------------------------|
E|15---------------------|------------------------|

e|-----------------------|15---------------------|
B|15---------------------|---15-------18-15------|
G|---17-15----15---------|------15----------15---|
D|---------17----17-15-17|---------17----------17|
A|-----------------------|-----------------------|
E|-----------------------|-----------------------|
Tap to rate this tab
 
# A B C D E F G H I J K L M N O P Q R S T U V W X Y Z