Song name
# A B C D E F G H I J K L M N O P Q R S T U V W X Y Z

Skrillex - All I Ask Of You tab

-----------------------------------------------------------------|
-----------------------------------------------------------------|
-11--------------11-11-11-9-8-9-11-------8-6---9-9-9-8-6---------|
----9---8-9-11---------------------9---6-------------------------|
-----------------------------------------------------------------|
-----------------------------------------------------------------|

-----------------------------------------------------------------|
-----------------------------------------------------------------|
----8-------------9--11---------11--------------11-11-11-9-8-----|
--9---6-----8-9----------9-11-9----9---8-9-11----------------11--|
----------9------------------------------------------------------|
-----------------------------------------------------------------|


Out of pure boredom, I figured this out on my uncles extremely old guitar..... and 
because it's old, it may not be exactly in tune but its close!
Tap to rate this tab
# A B C D E F G H I J K L M N O P Q R S T U V W X Y Z