Song name
# A B C D E F G H I J K L M N O P Q R S T U V W X Y Z

Skrillex - Father Said Feat 12th Planet tab

Song: Father Said feat. 12th Planet
Artist: Skrillex
Album: Unreleased

(USE LOTS OF DISTORTION)
Guitars 1 and 2: Intro
e|------|   |----|
B|------|   |----|
G|------|   |----|
D|9~9~9~|x3 |9~9~|
A|9~9~9~|   |9~9~|
D|9~9~9~|   |9~9~|
                   
Rhythm Guitar: Pre Dubstep
e|----------| |----------| |----------| |----|
B|----------| |----------| |----------| |----|
G|----------| |----------| |----------| |----|
D|9~9~11~13~| |9~9~11~22~| |9~9~11~13~| |9~9~|
A|9~9~11~13~| |9~9~11~22~| |9~9~11~13~| |9~9~|
D|9~9~11~13~| |9~9~11~22~| |9~9~11~13~| |9~9~|

Lead Guitar: Pre Dubstep
e|--------------| |--------------| |--------------| |------|
B|--------------| |--------------| |--------------| |------|
G|--------------| |--------------| |--------------| |------|
D|--9--9--11--13| |--9--9--11--22| |--9--9--11--13| |--9--9|
A|-9--9--11--13-| |-9--9--11--22-| |-9--9--11--13-| |-9--9-|
D|9--9--11--13--| |9--9--11--22--| |9--9--11--13--| |9--9--|

Lead Guitar: Dubstep Riff
e|--------|
B|--------|
G|--------|
D|--------|
A|--/12---|
D|11---12\|

Rhythm Guitar: Dubstep Riff
e|-----------------| |-------| |----------------| |-------|
B|-----------------| |-------| |----------------| |-------|
G|-----------------| |-------| |----------------| |-------|
D|3b-3b-----1-----1| |-------| |3b~------1-----1| |-------|
A|3b-3b-----1-----1| |-------| |3b~------1-----1| |-------|
D|3b-3b-0-0-1-0-0-1| |0000000| |3b~--0-0-1-0-0-1| |0000000|
       [P.M . . . .] [.......]      [. . . . . .] [.......]
(Repeat as needed)
Rhythm Guitar: Verses
e|-------|
B|-------|
G|-------|
D|3-3---3|(Repeat as needed)
A|3-3---3|
D|3-3---3|
 [P.M   .]

Lead Guitar: Prechorus [Also Bridge] (Turn off distortion)
e|2-2-2-2-4-4-4-4-6-6-6-6|
B|3-3-3-3-5-5-5-5-7-7-7-7|
G|2-2-2-2-4-4-4-4-6-6-6-6|
D|-----------------------|(Repeat as needed)
A|-----------------------|
D|-----------------------|

Both Guitars: Chorus (Turn on distortion)
e|--------------------------------|
B|--------------------------------|
G|--------------------------------|
D|11~11~11~11~13~13~13~13~9~9~9~9~|
A|11~11~11~11~13~13~13~13~9~9~9~9~|
D|11~11~11~11~13~13~13~13~9~9~9~9~|

Order:
Intro x1
Predubstep x1
Dubstep Riff x2
Verse x(as needed)
Pre Chorus x3
Chorus x 2
Dubstep Riff x1
Verse x(as needed)
Pre  Chorus x3
Chorus x2
Dubstep Riff x1
Bridge x3
Chorus x2
Dubstep Riff x 3
Tap to rate this tab
 
# A B C D E F G H I J K L M N O P Q R S T U V W X Y Z