Song name
# A B C D E F G H I J K L M N O P Q R S T U V W X Y Z

Skrillex - With You Friends Long Drive tab

Song: With You, Friends (Long Drive)
Artist: Skrillex
Album: Scary Monsters and Nice Sprites EP

e|----------------------2------------------|
B|-4-----0----4--4--0-------2---2---0---2--|
G|-----------------------------------------|
D|-----------------------------------------|
A|-----------------------------------------|
E|-----------------------------------------|
  Please tell my mother I'm down on my knees

e|-------------------------------------(7----4----2)|
B|2--2--4--4---7----0-------7--2---0----------------|
G|----------------------0---------------------------|
D|--------------------------------------------------|
A|--------------------------------------------------|
E|--------------------------------------------------|
  And I really miss you Oh, I love you (you, you, you)
e|--------------------------(7----4---0-)|
B|----7--4--2br--7---4---0---------------|
G|0~-------------------------------------|
D|---------------------------------------|
A|---------------------------------------|
E|---------------------------------------|
  Ah~ All I love All my love (All my love)
Tap to rate this tab
# A B C D E F G H I J K L M N O P Q R S T U V W X Y Z