Song name
# A B C D E F G H I J K L M N O P Q R S T U V W X Y Z

Skrillex - Scary Monsters And Nice Sprites Acostic tab

-------------------------------------------------------------------------------
			                 Scary Monsters And Nice Sprites - Skrillex
-------------------------------------------------------------------------------

Tabbed by: LaXeL
Me playing the song(no outro)http://www.youtube.com/watch?v=aIma1-jUc2I

Tuning: Standard

e|--------------0--------------------------------5------3--------------------|
B|-----------1----3p1-0---------------------------5------1-------------------|
G|----2p0h2---2------------0---------0-------------5/2----4p0----------------|
D|----------------------0----3-2p0------------2------------------------------|
A|------------------------3----0----3---3p0h3--------------------------------|
E|-1------------------3------------------------------------------------------|
  
                    (F--A--S--T)
e|----3--0--0p1h0---------0h1p0--3------------3------------------------------|
B|-1--1------------3-0h1h3----------1-1-1-1-1---1-1-1h3p1-0------------------|
G|-2---------------------------------------------------------2---------------|
D|---------------------------------------------------------------------------|
A|---------------------------------------------------------------------------|
E|---------------------------------------------------------------------------|

e|---------------------------------------------------------3-----------------|
B|-------------------5-------------------3-----5p3-5-3-5---------------------|
G|-2-4-5---2-2-2-2-5---5---2-2-2-4-5-------5-------------------5-------------|
D|------------------------------------5-5------------------------------------|
A|---------------------------------------------------------------------------|
E|---------------------------------------------------------------------------|
  (outro)
e|-5/7-7h8-8-10p8-8h10-10p8-12-10h12--5/7-7h8-8--------8/10-10p8-12-10h12----|
B|-----------------------------------------------8-6/5-----------------------|
G|---------------------------------------------------------------------------|
D|---------------------------------------------------------------------------|
A|---------------------------------------------------------------------------|
E|---------------------------------------------------------------------------|

Tap to rate this tab
# A B C D E F G H I J K L M N O P Q R S T U V W X Y Z