Song name
# A B C D E F G H I J K L M N O P Q R S T U V W X Y Z

Skrillex - All I Ask Of You tab

-------------------------------------------------------------------------------
All I Ask Of You - Skrillex
-------------------------------------------------------------------------------
Tabbed by: Forssmeistern
Email: Forssmeistern@hotmail.com

Tuning: Drop D

 I didn’t do the beginning.
 0:45 in to the song

 Strum Guitar
e|---------------------------------------------------------------------------|
B|---------------------------------------------------------------------------|
G|---------------------------------------------------------------------------|
D|-7-7-7-7-7-7-7-7----5-5-5-5-5-5-5-5----3-3-3-3-3-3-3-3----0-0-0-0-0-0-0-0--|
A|-7-7-7-7-7-7-7-7----5-5-5-5-5-5-5-5----3-3-3-3-3-3-3-3----0-0-0-0-0-0-0-0--|
E|-7-7-7-7-7-7-7-7----5-5-5-5-5-5-5-5----3-3-3-3-3-3-3-3----0-0-0-0-0-0-0-0--|

  Melody Guitar
e|-15------------------15--15-15-13-12----12-----------12---13--13-1312------|
B|----13-----12-13-15------------------15----13----------15-------------15-13|
G|---------------------------------------------------14----------------------|
D|---------------------------------------------------------------------------|
A|---------------------------------------------------------------------------|
E|---------------------------------------------------------------------------|

  Strum Guitar
e|---------------------------------------------------------------------------|
B|---------------------------------------------------------------------------|
G|-9-9-9-9-9-9-9-9----10-10-10-10-12-12-12-12----12--------------------------|
D|-7-7-7-7-7-7-7-7----9--9--9--9--9--9--9--9-----9---------------------------|
A|-8-8-8-8-8-8-8-8----10-10-10-10-10-10-10-10----10--------------------------|
E|---------------------------------------------------------------------------|
  Melody Guitar
e|-12-----------------13-15---------------12------15-----------15--15-15-13--|
B|----------12-13---------------------------15------13-12-13-15--------------|
G|---14--12-----------------------------14-----------------------------------|
D|---------------------------------------------------------------------------|
A|---------------------------------------------------------------------------|
E|---------------------------------------------------------------------------|

e|--12-----------------------------------------------------------------------|
B|-----15--------------------------------------------------------------------|
G|---------------------------------------------------------------------------|
D|---------------------------------------------------------------------------|
A|---------------------------------------------------------------------------|
E|---------------------------------------------------------------------------|

  Strum Guitar.

  In comes the dawn… 		       I’ve fallen…
e|---------------------------------------------------------------------------|
B|---------------------------------------------------------------------------|
G|---------------------------------------------------------------------------|
D|-7-7-7-7-7-7-7-7----5-5-5-5-5-5-5-5----3-3-3-3-3-3-3-3----0-0-0-0-0-0-0-0--|
A|-7-7-7-7-7-7-7-7----5-5-5-5-5-5-5-5----3-3-3-3-3-3-3-3----0-0-0-0-0-0-0-0--|
E|-7-7-7-7-7-7-7-7----5-5-5-5-5-5-5-5----3-3-3-3-3-3-3-3----0-0-0-0-0-0-0-0--|
		     Flaws..            Love..
e|---------------------------------------------------------------------------|
B|---------------------------------------------------------------------------|
G|---------------------------------------------------------------------------|
D|-3-3-3-3-3-3-3-3----5-5-5-5-5-5-5-5----7-7-7-7-7-7-7-7----0-0-0-0-0-0-0-0--|
A|-3-3-3-3-3-3-3-3----5-5-5-5-5-5-5-5----7-7-7-7-7-7-7-7----0-0-0-0-0-0-0-0--|
E|-3-3-3-3-3-3-3-3----5-5-5-5-5-5-5-5----7-7-7-7-7-7-7-7----0-0-0-0-0-0-0-0--| x2

  Melody Guitar comes in the second time
e|---------------------------------------------------------15--15-15-13-12---|
B|-------------------------------------------------------------------------15|
G|---------------------------------------------------------------------------|
D|---------------------------------------------------------------------------|
A|---------------------------------------------------------------------------|
E|---------------------------------------------------------------------------|

  Strum Guitar
  All I ask of you…		     Just open up…
e|---------------------------------------------------------------------------|
B|-------------------------------------3-3-3-3-3-3-3-3-3-3-3-3-3-3-3-3-------|
G|-5-5-5-5-7-7-7-7-9-9-9-9-12-12-12-12-5-5-5-5-5-5-5-5-5-5-5-5-5-5-5-5-------|
D|-5-5-5-5-9-9-9-9-1010101012-12-12-12-5-5-5-5-5-5-5-5-5-5-5-5-5-5-5-5-------|
A|-3-3-3-3-5-5-5-5-7-7-7-7-10-10-10-10-3-3-3-3-3-3-3-3-3-3-3-3-3-3-3-3-------|
E|-3-3-3-3-5-5-5-5-7-7-7-7-10-10-10-10-3-3-3-3-3-3-3-3-3-3-3-3-3-3-3-3-------| x4

You don’t need to bring the E and A Lines but I think it sounds a whole lot           
better with it on

 Melody Guitar comes in the third time with the same melody as in the beginning

  Strum Guitar

e|---------------------------------------------------------------------------|
B|---------------------------------------------------------------------------|
G|---------------------------------------------------------------------------|
D|-7-7-7-7-7-7-7-7-5-5-5-5-5-5-5-5-3-3-3-3-3-3-3-3-0-0-0-0-0-0-0-0-----------|
A|-7-7-7-7-7-7-7-7-5-5-5-5-5-5-5-5-3-3-3-3-3-3-3-3-0-0-0-0-0-0-0-0-----------|
E|-7-7-7-7-7-7-7-7-5-5-5-5-5-5-5-5-3-3-3-3-3-3-3-3-0-0-0-0-0-0-0-0-----------|


e|---------------------------------------------------------------------------|
B|---------------------------------------------------------------------------|
G|---------------------------------------------------------------------------|
D|-3-3-3-3-3-3-3-3-5-5-5-5-5-5-5-5-7-7-7-7-7-7-7-7-0-0-0-0-0-0-0-0-----------|
A|-3-3-3-3-3-3-3-3-5-5-5-5-5-5-5-5-7-7-7-7-7-7-7-7-0-0-0-0-0-0-0-0-----------|
E|-3-3-3-3-3-3-3-3-5-5-5-5-5-5-5-5-7-7-7-7-7-7-7-7-0-0-0-0-0-0-0-0-----------| x3

  The melody Guitar does the melody from the beginning

  The fourth time the rhythm changes a bit
e|---------------------------------------------------------------------------|
B|---------------------------------------------------------------------------|
G|---------------------------------------------------------------------------|
D|-777-777-777-777-555-555-555-555-333-333-333-333-000-000-000-000-----------|
A|-777-777-777-777-555-555-555-555-333-333-333-333-000-000-000-000-----------|
E|-777-777-777-777-555-555-555-555-333-333-333-333-000-000-000-000-----------|


e|---------------------------------------------------------------------------|
B|---------------------------------------------------------------------------|
G|---------------------------------------------------------------------------|
D|-333-333-333-333-555-555-555-555-777-777-777-777-000-000-000-000-----------|
A|-333-333-333-333-555-555-555-555-777-777-777-777-000-000-000-000-----------|
E|-333-333-333-333-555-555-555-555-777-777-777-777-000-000-000-000-----------|

  Strum Guitar
  All I ask of you…		     Just open up…
e|---------------------------------------------------------------------------|
B|-------------------------------------3-3-3-3-3-3-3-3-3-3-3-3-3-3-3-3-------|
G|-5-5-5-5-7-7-7-7-9-9-9-9-12-12-12-12-5-5-5-5-5-5-5-5-5-5-5-5-5-5-5-5-------|
D|-5-5-5-5-9-9-9-9-1010101012-12-12-12-5-5-5-5-5-5-5-5-5-5-5-5-5-5-5-5-------|
A|-3-3-3-3-5-5-5-5-7-7-7-7-10-10-10-10-3-3-3-3-3-3-3-3-3-3-3-3-3-3-3-3-------|
E|-3-3-3-3-5-5-5-5-7-7-7-7-10-10-10-10-3-3-3-3-3-3-3-3-3-3-3-3-3-3-3-3-------| x4

You don’t need to bring the E and A Lines but I think it sounds a whole lot           
better with it on

 Melody Guitar comes in the third time with the same melody as in the beginning



All these parts just going around. Listen to the song and figure it out.

This is my first tab so don’t be too hard on me.
Tap to rate this tab
 
# A B C D E F G H I J K L M N O P Q R S T U V W X Y Z