Song name
# A B C D E F G H I J K L M N O P Q R S T U V W X Y Z

Skrillex - Scary Monsters And Nice Sprites tab

Hey, this is my first ever tab. Thought i would give it a go and it is done all by ear 
but it sounds good to me.

Standard Tuning

Intro

e----------------------------------------------------------------------15-----|
B---------------------15-------------------------------------------------15---|
G------------15----------17-15---------------------------------------------15-|
D--17-15-17--------15----------15-----------15-13-12------15--------12--------|
A---------------------------------15-17-15-----------15-13--13-10-13----------|
E-----------------------------------------------------------------------------|

e-------------------|
B----18-------------|
G-------17-14-------|
D-17----------15----|
A-------------------|
E-------------------|

Feel free to give me feedback and rate, thanks.
Tap to rate this tab
# A B C D E F G H I J K L M N O P Q R S T U V W X Y Z