Song name
# A B C D E F G H I J K L M N O P Q R S T U V W X Y Z

Skrillex - With You Friends Long Drive tab

-------------------------------------------------------------------------------
                             WITH YOU LONG DRIVE- Skrillex
-------------------------------------------------------------------------------
Tabbed by: will 
Email: kwikemart777@aol.com

Tuning: standard

e|--14-------14--14-------17---12--12--------12------------12--14---|
B|------15------------15-------------------15--------15-15- --------|
G|------------------------------------------------------------------|  
D|------------------------------------------------------------------|
A|------------------------------------------------------------------|
E|------------------------------------------------------------------|

e|--14--17--14--12----17-17--14--12---12--14-------------17-----12--|
B|-----------------15------------------------15---15--15----15------|
G|------------------------------------------------------------------|
D|------------------------------------------------------------------|
A|------------------------------------------------------------------|
E|------------------------------------------------------------------|X2


e|-----------17----12---------12h14p12------12h14p--------14----17--|
B|---15--15-----15----10---7----------15----------15---15----15-----|
G|------------------------------------------------------------------|
D|------------------------------------------------------------------|
A|------------------------------------------------------------------|
E|------------------------------------------------------------------|

Tap to rate this tab
# A B C D E F G H I J K L M N O P Q R S T U V W X Y Z