Song name
# A B C D E F G H I J K L M N O P Q R S T U V W X Y Z

Skrillex - Breakn A Sweat tab

Skrillex - Breakn' A Sweat

STANDARD TUNING
AND PLEASE DONT HATE!

Guitar Tab
e-----------------------------------------------------|
B-----------------------------------------------------|
G-------------------------------------------0---2-----|
D---------------------------------------------2---2---|
A-----------------2-0-----2---------------------------|
E-3-5-2-3-0-2-3-5-----3-2---3-5-2-3-0-2-3-5-----------|



e-----------------------------------------------------|
B-----------------------------------------------------|
G-----------------------------------------------------|
D-----------------------------------------------------|
A-----------------2-0-----2-----------------2-0-------|
E-3-5-2-3-0-2-3-5-----3-2---3-5-2-3-0-2-3-5-----------|


e-----------------------------------------------------|
B-5-5-5-3-3-5-3-0-----------0-------------------------|
G-----------------2-0---0-2---------------------------|
D---------------------2-------2--2-0-0-2--------------|
A-----------------------------------------------------|
E-----------------------------------------0-----------|


e----------------------------------------------------|
B-5-5-5-3-3-5-3-5-3-0---------0----------------------|
G---------------------0---0-2-----2-0----------------|
D-----------------------2-------2-----5-5------------|
A----------------------------------------------------|
E------------------------------------------0---------|

e----------------------------------------------------|
B-5-5-5-3-3-5-3-0-----------0------------------------|
G-----------------2-0---0-2--------------------------|
D---------------------2-------2--2-0-0-2-------------|
A----------------------------------------------------|
E-----------------------------------------0----------|

e---------------------------------------------------|
B-5-5-5-3-3-5-----0-----0-3-------0-----------------|
G-------------0-2---2-2-------0-2-------2-0---------|
D---------------------------2-------0-2-------------|
A---------------------------------------------------|
E---------------------------------------------------|


e-------------------------------------------|
B-------------------------------------------|
G-------------------------------------------|
D-------------------------------------------|
A-----------------2-0-----2-0---------------|
E-3-5-2-3-0-2-3-5-----3-2-----3-2-----------|
Tap to rate this tab
# A B C D E F G H I J K L M N O P Q R S T U V W X Y Z