Song name
# A B C D E F G H I J K L M N O P Q R S T U V W X Y Z

Skrillex - With You Friends tab

With you friends [long drive] - skrillex

Tuning: Standard


|------------------------------------------------------|
|-7--7-7---10------------------------------------------|
|--7-----7---9--(9)-7-9-(9)-----7H9-9/11-(11)--14-11---|
|---------------------------(7)---------------------12-|
|------------------------------------------------------|
|------------------------------------------------------|

|------------------------------------------------------|
|-----------------7----10-----------------------------7|
|-14-11-11-9-7--9--7------9--7--9------7H9P7---7-9P7H9-|
|------------------------------------7--------7--------|
|-------------------------------------------x2---------|
|------------------------------------------------------|

Fredrik K (eid)
Tap to rate this tab
# A B C D E F G H I J K L M N O P Q R S T U V W X Y Z