Song name
# A B C D E F G H I J K L M N O P Q R S T U V W X Y Z

Skrillex - Kyoto tab

* = Palm Mute
/! = Whammy



  BEGINNING: x8
|------------|
|------------|
|------------|
|------------|
|--6----7-6--|
|--4----5-4--|




  BUILD-UP: x4
|------------------------|
|--7-7-7-10-8-8-7-7------|
|------------------------|
|------------------------|
|------------------------|
|------------------------|

|------------------------|
|--7-7-7-5-8-8-7-7-------|
|------------------------|
|------------------------|
|------------------------|
|------------------------|




YO SKRILL DROP IT HARD:
|------------------------------------------|
|------------------------------------------|
|------------------------------------------|
|------------------------------------------|
|--7-7-7-10-8-8-7-7----*7-*7--*7-*7-*7-----|
|--5-5-5-8--6-6-5-5----*5-*5--*5-*5-*5-----|


|------------------------------------------|
|------------------------------------------|
|------------------------------------------|
|------------------------------------------|
|--7-7-7-5-8-8-7-7-----14-/!14-------------|
|--5-5-5-3-6-6-5-5-----12-/!12-------------|
Tap to rate this tab
# A B C D E F G H I J K L M N O P Q R S T U V W X Y Z