Song name
# A B C D E F G H I J K L M N O P Q R S T U V W X Y Z

Skrillex - Right On Time tab

Tab by: Davis Smith
I just tabbed the last part from about 3:30-4:08 since its the only really
noticeable melody. Anywho....

E|-3-----------6-3-6-8-10-13-8-10-6-------6------|
B|---4-3-----1----------------------6---6--------|
G|-------3-0--------------------------3----------|
D|-----------------------------------------------|
A|-----------------------------------------------|
E|-----------------------------------------------|



E|-3-----------6-3-6-8-10-13-8-10-6-11-10-6---8---|
B|---4-3-----1------------------------------8---6-|
G|-------3-0--------------------------------------|
D|------------------------------------------------|
A|------------------------------------------------|
E|------------------------------------------------|
Tap to rate this tab
 
# A B C D E F G H I J K L M N O P Q R S T U V W X Y Z