Song name
# A B C D E F G H I J K L M N O P Q R S T U V W X Y Z

Skrillex - Cinema tab

-------------------------------------------------------------------------------
                             Cinema - Skrillex
-------------------------------------------------------------------------------
Tabbed by: Brandon Heaslip
E-mail:b.heaslip@hotmail.com

Thought I'd take a shot at tabbing out some chords to this song. I really 
wanted to play along with this song but there are really no other tabs out 
there, so this is what i eared out. Hope you enjoy!

Crank the Distortion and Effects. 
Tuning: Drop D
INTRO-CHORDS
e|---------------------------------------------------------------------------|
B|---------------------------------------------------------------------------|
G|---------------------------------------------------------------------------|
D|--0------4-------7------2--------------------------------------------------|X3
A|--0------4-------7------2--------------------------------------------------|
D|--0------4-------7------2--------------------------------------------------|

    |--- Chorus ---|
e|---------------------------------------------------------------------------|
B|---------------------------------------------------------------------------|
G|---------------------------------------------------------------------------|
D|--0--0-0-0---2--2-2-2---4--4-4-4----4-2------------------------------------|X3
A|--0--0-0-0---2--2-2-2---4--4-4-4----4-2------------------------------------|
D|--0--0-0-0---2--2-2-2---4--4-4-4----4-2------------------------------------|

The-DROP
e|---------------------------------------------------------------------------|
B|---------------------------------------------------------------------------|
G|---------------------------------------------------------------------------|
D|-7---4----4--4--4--4--4--4--4--4--4--4--4--4-------------------------------|
A|-7---4----4--4--4--4--4--4--4--4--4--4--4--4-------------------------------|
D|-7---4----4--4--4--4--4--4--4--4--4--4--4--4-------------------------------|
            *  *  *  *  *  *  *  *  *  *  *  *
e|---------------------------------------------------------------------------|
B|---------------------------------------------------------------------------|
G|---------------------------------------------------------------------------|
D|-7---4----4-4-4-4-4-4-4-4-4-4-4-4-4-4-4-4-4-4------------------------------|
A|-7---4----4-4-4-4-4-4-4-4-4-4-4-4-4-4-4-4-4-4------------------------------|
D|-7---4----4-4-4-4-4-4-4-4-4-4-4-4-4-4-4-4-4-4------------------------------|
            * * * * * * * * * * * * * * * * * *
e|---------------------------------------------------------------------------|
B|---------------------------------------------------------------------------|
G|---------------------------------------------------------------------------|
D|-7---4----4--4--4--4--4--4--4--4--4--4--4--4-------------------------------|
A|-7---4----4--4--4--4--4--4--4--4--4--4--4--4-------------------------------|
D|-7---4----4--4--4--4--4--4--4--4--4--4--4--4-------------------------------|
            *  *  *  *  *  *  *  *  *  *  *  *
e|---------------------------------------------------------------------------|
B|---------------------------------------------------------------------------|
G|---------------------------------------------------------------------------|
D|----4/7--4-4---4/7--4-4----------------------------------------------------|
A|----4/7--4-4---4/7--4-4-------7-11-----------------------------------------|
D|----4/7--4-4---4/7--4-4---4-9----------------------------------------------|
            
e|---------------------------------------------------------------------------|
B|---------------------------------------------------------------------------|
G|---------------------------------------------------------------------------|
D|-7---4----4--4--4--4--4--4--4--4--4--4--4--4-------------------------------|
A|-7---4----4--4--4--4--4--4--4--4--4--4--4--4-------------------------------|
D|-7---4----4--4--4--4--4--4--4--4--4--4--4--4-------------------------------|
            *  *  *  *  *  *  *  *  *  *  *  *
e|---------------------------------------------------------------------------|
B|---------------------------------------------------------------------------|
G|---------------------------------------------------------------------------|
D|-7---4----4-4-4-4-4-4-4-4-4-4-4-4-4-4-4-4-4-4------------------------------|
A|-7---4----4-4-4-4-4-4-4-4-4-4-4-4-4-4-4-4-4-4------------------------------|
D|-7---4----4-4-4-4-4-4-4-4-4-4-4-4-4-4-4-4-4-4------------------------------|
            * * * * * * * * * * * * * * * * * *
e|---------------------------------------------------------------------------|
B|---------------------------------------------------------------------------|
G|---------------------------------------------------------------------------|
D|-7---4----4--4--4--4--4--4--4--4--4--4--4--4-------------------------------|
A|-7---4----4--4--4--4--4--4--4--4--4--4--4--4-------------------------------|
D|-7---4----4--4--4--4--4--4--4--4--4--4--4--4-------------------------------|
            *  *  *  *  *  *  *  *  *  *  *  *
e|---------------------------------------------------------------------------|
B|---------------------------------------------------------------------------|
G|---------------------------------------------------------------------------|
D|----4/7--4-4---4/7--4-4----------------------------------------------------|
A|----4/7--4-4---4/7--4-4-------7-11-----------------------------------------|
D|----4/7--4-4---4/7--4-4---4-9----------------------------------------------|

  |--- Pre-Chorus ---|
e|---------------------------------------------------------------------------|
B|---------------------------------------------------------------------------|
G|---------------------------------------------------------------------------|
D|--12----14-16----18-19-----16-14-------------------------------------------|
A|--12----14-16----18-19-----16-14-------------------------------------------|
D|--12----14-16----18-19-----16-14-------------------------------------------|

e|---------------------------------------------------------------------------|
B|---------------------------------------------------------------------------|
G|---------------------------------------------------------------------------|
D|---12--12-12-12----16--16-16-16----19--19-19-19----14--14-14-14------------|
A|---12--12-12-12----16--16-16-16----19--19-19-19----14--14-14-14------------|
D|---12--12-12-12----16--16-16-16----19--19-19-19----14--14-14-14------------|

    |--- Chorus ---|
e|---------------------------------------------------------------------------|
B|---------------------------------------------------------------------------|
G|---------------------------------------------------------------------------|
D|--0--0-0-0---2--2-2-2---4--4-4-4----4-2------------------------------------|X3
A|--0--0-0-0---2--2-2-2---4--4-4-4----4-2------------------------------------|
D|--0--0-0-0---2--2-2-2---4--4-4-4----4-2------------------------------------|




************************************

| /   slide up
| \   slide down
| h   hammer-on
| p   pull-off
| ~   vibrato
| +   harmonic
| x   Mute note
| b   Bend
| pb  Pre-bend
| br  Bend release
| pbr Pre-bend release
| brb Bend release bend
| *   Palm Mute

************************************
Tap to rate this tab
# A B C D E F G H I J K L M N O P Q R S T U V W X Y Z