Song name
# A B C D E F G H I J K L M N O P Q R S T U V W X Y Z

Skrillex - Kill Everybody tab

-------------------------------------------------------------------------------
                             Kill Everybody - Skrillex
-------------------------------------------------------------------------------
Tabbed by: Michael Capanna
Email: SpyderPB6@gmail.com

Standard 8 String Tuning

Can easily be played in standard 7 string, and tuned down 6.


My second tab for Skrillex. Based on Fracionado's version of the song. Will up
load video play through soon. Please login and rate this tab.


There is certainly room for improvement, especially on the small solo, please
provide comments to improve!


Thanks! Enjoy!


E|----------------------------|*  |---------------------------------------------|
B|----------------------------|3  |---------------------------------------------|
G|----------------------------|T  |---------------------------------------------|
D|----------------------------|I  |---------------------------------------------|
A|----------------------------|M  |---------------------------------------------|
E|--5-----5-5--------5-4------|E  |--5-----5-5/8/3------------------------------|
B|--3-333-3-3-0h3b4b33-2------|S  |--3-333-3-3/6/1------------------------------|
F|----------------------h5----|*  |---------------------------------------------|
    x xxx x x x      x x x           x xxx x x x x

E|----------------------------|*  |---------------------------------------------|
B|----------------------------|3  |---------------------------------------------|
G|----------------------------|T  |---------------------------------------------|
D|-4-444-4-4---------3/4------|I  |-4-444-4-4-----------------------------------|
A|-5-555-5-5---------4/5------|M  |-5-555-5-5-----------------------------------|
E|-5-555-5-5---------4/5------|E  |-5-555-5-5-----------------------------------|
B|-3-333-3-3-0h3b4b3-2/3------|S  |-3-333-3-3/8\--------------------------------|
F|-----------------------h5---|*  |-------------1-------------------------------|
   x xxx x x x       x x  x         x xxx x x   x

E|--------------------------------------------------------------------------------|*
B|-------------------------------------------------------I----------------------|2|*
G|----7---------7----------7---------7---------------------WANT-------------------|*T
D|------8-7-------8-7--------8-7-------8-7-------------------TO-------------------|*I
A|----------8---------88---------8---------88------------------KILL---------------|*M
E|---------------------------------------------------------------EVERYBODY--------|*E
B|--------------------------------------------------------------------------------|*S
F|--------------------------------------------------------------------------------|*
      x x x x   x x x xx   x x x x   x x x xx

E|--------------------------------------------------------------------------------|*
B|---------------------------------------------------------------I--------------|2|*
G|-----77-------------77-------------77-------------77------------WANT------------|*T
D|--------88-77----------88-77----------88-77----------88-77-------TO-------------|*I
A|--------------88-------------88-------------88-------------88-----EAT-----------|*M
E|-------------------------------------------------------------------YOUR---------|*E
B|--------------------------------------------------------------------HEART-------|*S
F|--------------------------------------------------------------------------------|*
       xx xx xx xx    xx xx xx xx    xx xx xx xx    xx xx xx xx

E|----------------------------------------------------------------------------------|*
B|--------------------------------------------------------------------------------|2|*
G|--------------------------------------------------77-10---------------------------|*T
D|--x/4-4-4-44-5--3p0/------------------------------55-8-------7-5-10-10-8-8-7------|*I
A|--x/5-5-5-55-6-----/---------5-0-----5-0-----55-8----------5-----------------8----|*M
E|--x/5-5-5-55-6-----/6-5----------------------55-6--------3------------------------|*E
B|--x/3-3-3-33-4-0---/---65-3~-----000-----000-33-6---------------------------------|*S
F|--0-------------------------------------------------------------------------------|*
      x x x xx x      x xxx x      xxx     xxx             x x x x

E|--------------------------------------------------------------------------------|
B|--------------------------------------------------------------------------------|
G|----------------------------------------8-8-8------------------------I----------|
D|-----------10~ -5~ ------4-4---4-4-4-5--101010--------------7-5~~------WANT-----|
A|--8~ 8~ 8~ --------3~ ---5-5---5-5-5-6--8-8-8--7/88-88----5--------------TO-----|
E|-------------------------5-5---5-5-5-6---------5/66-66--3------------------KILL-|
B|-------------------------3-3---3-3-3-4------------------------------------------|
F|--------------------------------------------------------------------------------|
                           x x   x x x x

E|--------------------------------------------------------------------------------|
B|--------------------------------------------------------------------------------|
G|--------------------------------------------------77-10-------------------------|
D|--x/4-4-4-44-5--3p0/------------------------------55-8--------7-5-10-10-8-8-7---|
A|--x/5-5-5-55-6-----/---------5-0-----5-0-----55-8-----------5-----------------8-|
E|--x/5-5-5-55-6-----/6-5----------------------55-6---------3---------------------|
B|--x/3-3-3-33-4-0---/---65-3~-----000-----000-33-6-------------------------------|
F|--0-----------------------------------------------------------------------------|
    x x x x xx x      x xxx x      xxx     xxx              x x x x

E|--------------------------------------------------------------------/-------------|*
B|-------------------------------------------------------------------/------------|2|*
G|--------------------------------------------------77-1010---------/---------------|*T
D|--x/4-4-4-44-5--3p0/------------------------------55-8-8---------/-SUPER-\\-------|*I
A|--x/5-5-5-55-6-----/---------5-0-----5-0-----55-8-----------5~ -/----MARIO--\-----|*M
E|--x/5-5-5-55-6-----/6-5----------------------55-6---------3----/-------BROS--\\---|*E
B|--x/3-3-3-33-4-0---/---65-3~-----000-----000-33-6-------------/-------------------|*S
F|--0----------------------------------------------------------/--------------------|*
    x x x x xx x      x xxx x      xxx     xxx              x x x x

E|--------------------------------------------------------------------------------|
B|------------------------------------------------15-13---------------------------|
G|------------------------------------------------------14-12---------------------|
D|--8~ 8~ 8~ - 3~ 3~ 3~/10~  5~ ----4-4---4-4-4-5-------------15-14-15-12~ ----7~ |
A|-----------------------------3~ --5-5---5-5-5-6----------------------------5----|
E|----------------------------------5-5---5-5-5-6--------------------------3------|
B|----------------------------------3-3---3-3-3-4---------------------------------|
F|--------------------------------------------------------------------------------|
                                    x x   x x x x

E|-b13-13-------------------------------------------------------------------------|
B|--------15----------------------------------------------------------------------|
G|--------------------15-----------14-----------10---------14---------------------|
D|-----------12-14-15-----15-14-12-----10-12-10----9-10-12----12/5~ --------------|
A|--------------------------------------------------------------------------------|
E|--------------------------------------------------------------------------------|
B|--------------------------------------------------------------------------------|
F|--------------------------------------------------------------------------------|

Except for minor changes, at this point the song repeats.

E|----------------------------|*  |------------------------------------------------|*
B|----------------------------|3  |------------------------------------------------|*
G|----------------------------|T  |------------------------------------------------|*
D|----------------------------|I  |------------------------------------------------|*
A|----------------------------|M  |------------------------------------------------|*
E|--5-----5-5--------5-4------|E  |--5-----5-5/8/3---------------------------------|*
B|--3-333-3-3-0h3b4b33-2------|S  |--3-333-3-3/6/1---------------------------------|*
F|----------------------h5----|*  |------------------------------------------------|*
    x xxx x x x      x x x           x xxx x x x x

E|---------------------------------------------------------------------------------|*
B|---------------------------------------------------------------I---------------|2|*
G|-----7--------------77-------------77-------------77------------WANT-------------|*T
D|--------8--7-----------88-77----------88-77----------88-77-------TO--------------|*I
A|--------------8--------------88-------------88-------------88-----EAT------------|*M
E|-------------------------------------------------------------------YOUR----------|*E
B|--------------------------------------------------------------------HEART--------|*S
F|---------------------------------------------------------------------------------|*
       x x   x  x     xx xx xx xx    xx xx xx xx    xx xx xx xx

E|---------------------------------------------------------------------------------|*
B|-------------------------------------------------------------------------------|2|*
G|--------------------------------------------------77-10--------------------------|*T
D|--x/4-4-4-44-5--3p0/------------------------------55-8-------7-5-10-10-8-8-7-----|*I
A|--x/5-5-5-55-6-----/---------5-0-----5-0-----55-8----------5-----------------8---|*M
E|--x/5-5-5-55-6-----/6-5----------------------55-6--------3-----------------------|*E
B|--x/3-3-3-33-4-0---/---65-3~-----000-----000-33-6--------------------------------|*S
F|--0------------------------------------------------------------------------------|*
      x x x xx x      x xxx x      xxx     xxx             x x x x



E|--------------------------------------------------------------------------------|
B|--------------------------------------------------------------------------------|
G|----------/10~ ---5~ -------------------8-8-8------------------------I----------|
D|-/8-/8-/8------------3~ -4-4---4-4-4-5--101010--------------7-5~~------WANT-----|
A|-------------------------5-5---5-5-5-6--8-8-8--7/88-88----5--------------TO-----|
E|-------------------------5-5---5-5-5-6---------5/66-66--3------------------KILL-|
B|-------------------------3-3---3-3-3-4------------------------------------------|
F|--------------------------------------------------------------------------------|


E|--------------------------------------------------------------------------------|
B|--------------------------------------------------------------------------------|
G|--------------------------------------------------77-10-------------------------|
D|--x/4-4-4-44-5--3p0/------------------------------55-8--------7-5-10-10-8-8-7---|
A|--x/5-5-5-55-6-----/---------5-0-----5-0-----55-8-----------5-----------------8-|
E|--x/5-5-5-55-6-----/6-5----------------------55-6---------3---------------------|
B|--x/3-3-3-33-4-0---/---65-3~-----000-----000-33-6-------------------------------|
F|--0-----------------------------------------------------------------------------|
    x x x x xx x      x xxx x      xxx     xxx              x x x x

E|--------------------------------------------------------------------/-------------|*
B|-------------------------------------------------------------------/------------|2|*
G|--------------------------------------------------77-1010---------/---------------|*T
D|--x/4-4-4-44-5--3p0/------------------------------55-8-8---------/-SUPER-\\-------|*I
A|--x/5-5-5-55-6-----/---------5-0-----5-0-----55-8-----------5~ -/----MARIO--\-----|*M
E|--x/5-5-5-55-6-----/6-5----------------------55-6---------3----/-------BROS--\\---|*E
B|--x/3-3-3-33-4-0---/---65-3~-----000-----000-33-6-------------/-------------------|*S
F|--0----------------------------------------------------------/--------------------|*
    x x x x xx x      x xxx x      xxx     xxx              x x x x

E|--------------------------------------------------------------------------------|
B|------------------------------------------------15-13---------------------------|
G|------------------------------------------------------14-12---------------------|
D|--8~ 8~ 8~ - 3~ 3~ 3~/10~  5~ ----4-4---4-4-4-5-------------15-14-15-12~ ----7~ |
A|-----------------------------3~ --5-5---5-5-5-6----------------------------5----|
E|----------------------------------5-5---5-5-5-6--------------------------3------|
B|----------------------------------3-3---3-3-3-4---------------------------------|
F|--------------------------------------------------------------------------------|
                                    x x   x x x x

E|-b13-13-------------------------------------------------------------------------|
B|--------15----------------------------------------------------------------------|
G|--------------------15-----------14-----------10---------14---------------------|
D|-----------12-14-15-----15-14-12-----10-12-10----9-10-12----12/5~ --------------|
A|--------------------------------------------------------------------------------|
E|--------------------------------------------------------------------------------|
B|--------------------------------------------------------------------------------|
F|--------------------------------------------------------------------------------|


E|----------------------------Essentially-----------------------------------------|
B|------------------------------Play----------------------------------------------|
G|--------------------------------This--------------------------------------------|
D|----------------------------------Until-----------------------------------------|
A|------------------------------------End-----------------------------------------|
E|--5-----5-5--------5-4----------------Of----------------------------------------|
B|--3-333-3-3-0h3b4b33-2-----------------Song-------------------------------------|
F|----------------------h5----------------------------Please-Login-and-Rate!------|
    x xxx x x x      x x x




| /  slide up
| \  slide down
| h  hammer-on
| p  pull-off
| ~  vibrato
| +  harmonic
| x  Mute note
===============================================================================
Tap to rate this tab
# A B C D E F G H I J K L M N O P Q R S T U V W X Y Z