Song name
# A B C D E F G H I J K L M N O P Q R S T U V W X Y Z

Skrillex - Make It Bun Dem tab

Standard tuning!

Raggae guitar:

e----------7--------------------|
B----------10-------------------|
G----------11-------------------|
D----------11-------------------|
A----------7--------------------|
E----------7--------------------|


Verse: We mash up the place...make it bun dem (Not the exact numeber of times at each 
note but listen to the song  and you'll get it)
e---------------------------------------------------|
B---------------------------------------------------|
G------------------------------6-6-6-6-7-6-4--------|
D----4-4-4-4-4-4-4--2--5--4-------------------7--4--|
A---------------------------------------------------|
E---------------------------------------------------|




Dubstep:
e-----------------------------------------------------------------------------------|
B-----------------------------------------------------------------------------------|
G---11--11--11--11-11-11-11-11--9-9-9-12-12-12-11-11-11-------11---11--11--11---11--|
D-----------------------------------------------------------------------------------|
A-----------------------------------------------------------------------------------|
E-----------------------------------------------------------------------------------|





e-----------------------------------------------------------------|
B-----------------------------------------------------------------|
G------6-6-6-6-6----4-4-4-7-7-7-6-6-6-----6-6-6--6-6-6------------|
D-----------------------------------------------------------------|
A-----------------------------------------------------------------|
E-----------------------------------------------------------------|





rap:
e-----------------------------------------------------------------|
B-----------------------------------------------------------------|
G-----------------------------------------------------------------|
D-------4-4-4-4-4-4-4-4-4-4-4--4--4--4--4-------------------------| ALL THE WAY.
A-----------------------------------------------------------------|
E-----------------------------------------------------------------|



The bright dubstep
e-------------------------------------------------------|
B---------------------------15-15-15--------------------|
G--------11-11-11-11-11-11-----------12-12-12-11--11-11-|
D-------------------------------------------------------|
A-------------------------------------------------------|
E-------------------------------------------------------|


e--------------------------------------------------------------------------|
B--------------------------------------------------------------------------|
G--------------------------------14-14-14----------------------------------|
D---------11-11-11-11-11-11-11-------------12-12-12--11--11--11--11--11----|
A--------------------------------------------------------------------------|
E--------------------------------------------------------------------------|
Tap to rate this tab
 
# A B C D E F G H I J K L M N O P Q R S T U V W X Y Z