Song name
# A B C D E F G H I J K L M N O P Q R S T U V W X Y Z

Skull Fist - Ride The Beast tab

Skull Fist - Head of the Pack
Head of the Pack 2011
Noise Art Records

Harmonies / 2nd guitar parts listed as well
no way I am tabbing the solos. too much work. learn em by ear dudes! thats how you get better
NOTE - some of the techniques like hammer ons and pull offs you will need to just listen for!
the tab is not the perfect notes. use your ear for perfection!
skull fist tunes down a full step.




note fades in guitar 1
----|
----|
----|
-7--|
----|
----|



note fades in guitar 2
----|
----|
-5--|
----|
----|
----|



guitar 1 intro
----------------------------------------------------|
----------------------------------------------------|
---------------------------------------5-5-5-5-4----|
-2-2----------------------2-2--------------------5--|
-0-0----------------------0-0-----------------------|
----------------------------------------------------|





guitar 2 intro
--------------------------------------------------------------------------------------|
--------------------------------------------------------------------------------------|
---------------------------5-4------------9-9-9-9-7-----------------------------------|
--7---7---5-7-----7---7-----------------------------10--------------------------------|
----0---0-----0-0---0---0-------------------------------------------------------------|
--------------------------------------------------------------------------------------|





main riff harmony at the end
-----------------------------------------------------------------|
-----------------------------------------------------------------|
---------------------------5-4-----5-5-5-5-4--------9-9-9-9-7----|
--7---7---5-7-----7---7----------------------5---------------10--|
----0---0-----0-0---0---0----------------------------------------|
-----------------------------------------------------------------|






verse (guitar 2 plays the main riff over top the verse)
------------------------------------------------------------------------|
------------------------------------------------------------------------|
------------------------------------------------------------------------|
--2-2-2-2-2-2-2---------------------------------------------------------|
--0-0-0-0-0-0-0-5-5-5-5-5-5-5-3-3-3-3-3--3-3-5-5-5-5-5-5-5--3-3-3-3-2---|
----------------3-3-3-3-3-3-3-1-1-1-1-1--1-1-3-3-3-3-3-3-3-----------3--|





solo backing riff
--------------------------------------------------------------------|
--------------------------------------------------------------------|
--------------------------------------------------------------------|
-2-2-2-2-2-2-2-5-5-5-5-5-5-5----------------------------------------|
-0-0-0-0-0-0-0-3-3-3-3-3-3-3-5-5-5-5-5-5-5---3-3-3-3-3-5-5-5-5-5-5--|
-----------------------------3-3-3-3-3-3-3---1-1-1-1-1-3-3-3-3-3-3--|





solo




double lead
-----------------------------------------------------------------------------------------|
--------------------------------6--5--6---8---6---5/6/5-------5---4---5---7---5---4/5/4--|
-----5---4---5---7--5-4-5-4-5-5--5--5---5---5---5---------5-5---5---5---5---5---5--------|
-7-7---7---7---7--7----------------------------------------------------------------------|
-----------------------------------------------------------------------------------------|
-----------------------------------------------------------------------------------------|


-------------------------------|
-------------------------------|
------5---4/5/4-----5---7-5-4--|
--3-3---3--------5-5--5--------|
-------------------------------|
-------------------------------|






guitar 2 double lead
-------------------------------------5---3---5---7---5---3/5/3---------------------------------|
----5---3---5---6---5---3/5/3-----5-5--5---5---5---5---5------------5---3---5---6---5---3/5/3--|
-5-5---5---5---5---5---5-----------------------------------------4-4---4---4---4---4---4-------|
-----------------------------------------------------------------------------------------------|
-----------------------------------------------------------------------------------------------|
-----------------------------------------------------------------------------------------------|


----------------------------------|
------5--3/5/3-------5---6-5-3----|
--2-2--2---------4-4---4-------4--|
----------------------------------|
----------------------------------|
----------------------------------|





chorus
-----------------------------------------------------------------------------------------|
-----------------------------------------------------------------------------------------|
---------------------------------------------7~9~7--5------------------------------------|
--7---7/5 7---9---9/7-9--10---10/9---------------------5--7------------------------------|
------------------------------------12-10------------------------------------------------|
-----------------------------------------------------------------------------------------|



guitar 2 chorus
-----------------------------------------------------------------------------------|
-----------------------------------------------------------------------------------|
---5-5/4-5--7--7/5--7-9---9/7---------7~9~7--5--4--5-------------------------------|
------------------------------10-9-------------------------------------------------|
-----------------------------------------------------------------------------------|
-----------------------------------------------------------------------------------|



solo rythm
-------------------------------------------------------------------------------------|
-------------------------------------------------------------------------------------|
-------------------------------------------------------------------------------------|
--2----------------------------------------------------------------------------------|
--0---5---3-----5--------------------------------------------------------------------|
------3---1-----3--------------------------------------------------------------------|




double lead together

---------17----17----17/15---17----15--17-17~20~17--17-17-15----17-----------------|
------17-----17----17-----17---------------------------------17--------------------|
---14------14----14----------------------------------------------------------------|
-----------------------------------------------------------------------------------|
-----------------------------------------------------------------------------------|
-----------------------------------------------------------------------------------|



2nd guitar double lead together


------20----20----20/19--20---19-20-22~24~22-20-20-19----20-------------------------|
----20----20----20-----20-----------------------------20----------------------------|
--17----17----17--------------------------------------------------------------------|
------------------------------------------------------------------------------------|
------------------------------------------------------------------------------------|
------------------------------------------------------------------------------------|





double lead thing

----------------------------------------------------------------------------------------|
----------------------------------------------------------------------------------------|
--------------------------5-5-5-5-5-4---------------------------------------------------|
-7-7-7-7-7-5--------------------------5-------------------------------------------------|
-------------7--------------------------------------------------------------------------|
----------------------------------------------------------------------------------------|


guitar build up thingy at end


------------------------------------------------------------------------------------|
----------------------------------------------------------13-13---------------------|
---9-9-9-9-9-7---10-10-10-10-10-9----12-12-12-12-12-10------------------------------|
---------------9------------------10-------------------12---------------------------|
------------------------------------------------------------------------------------|
------------------------------------------------------------------------------------|




guitar build up thingy at end guitar 2


--------------------------------------------------------------------------------------|
--------------------------------------------------------------------------------------|
-------------------------------------------------------------------14-14--------------|
---10-10-10-10-10-9----12-12-12-12-12-10-----14-14-14-14-14-12------------------------|
--------------------10-------------------12--------------------14---------------------|
--------------------------------------------------------------------------------------|



www.SKULLFIST.ca
facebook.com/skullfisted
Tap to rate this tab
 
# A B C D E F G H I J K L M N O P Q R S T U V W X Y Z