Song name
# A B C D E F G H I J K L M N O P Q R S T U V W X Y Z

Skunk Anansie - Tear The Place Up tab

Help us improve GuitareTab! Take a short survey!
Intro + verse chords
   1 + 2 + 3 + 4 +   1 + 2 + 3 + 4 +
e:-----------------|----------------------------------------------|
B:-----------------|----------------------------------------------|
G:-2---2-----------|-2---2-----5-5-5------------------------------|
D:-2---2-----2---2-|-2---2-----5-5-5------------------------------|
A:-0---0-----2---2-|-0---0-----3-3-3------------------------------|
E:-----------0---0-|----------------------------------------------|


Chorus
   1 + 2 + 3 + 4 +   1 + 2 + 3 + 4 +
e:-----------------|----------------------------------------------|
B:-----------------|----------------------------------------------|
G:-----------------|----------------------------------------------|
D:-7-7-7-6-6-6-5-5-|-5-4-4-4-3-3-2-2------------------------------|
A:-7-7-7-6-6-6-5-5-|-5-4-4-4-3-3-2-2------------------------------|
E:-5-5-5-4-4-4-3-3-|-3-2-2-2-1-1-0-0------------------------------|

Watch the timing on this part, there is a bar of 2/4 at the end!
   1 + 2 + 3 + 4 +   1 + 2 + 3 + 4 +   1 + 2 + 3 + 4 +   1 + 2 +
e:-----------------|-----------------|-----------------|----------|
B:-----------------|-----------------|-----------------|----------|
G:-----------------|-----------------|-----------------|----------|
D:-7-----7-----7---|---7-----7-----7-|-----7-----7-----|-7---7----|
A:-7-----7-----7---|---7-----7-----7-|-----7-----7-----|-7---7----|
E:-4-----4-----4---|---4-----4-----4-|-----4-----4-----|-4---4----|

[return the the verse chords, but miss only play on alternate sections. there is also a 
before the next chorus]

after the second chorus, there is the "bridge section" where it sounds like a string 
is sliding up, until it all drops and the guitar plays this note for 4 bars
e:---------------------------------------------------------------|
B:-17------------------------------------------------------------|
G:---------------------------------------------------------------|
D:---------------------------------------------------------------|
A:---------------------------------------------------------------|
E:---------------------------------------------------------------|
[16THS FOR 4 BARS]


Come back in for a chorus with VERSE CHORDS
then another chorus with CHORUS, WITH TREMOLO PICKING:
e:------|---17---|
B:--10--|--------|
G:------|--------|
D:------|--------|
A:------|--------|
E:------|--------|
Related for Tear The Place Up tab