Song name
# A B C D E F G H I J K L M N O P Q R S T U V W X Y Z

Skunk Anansie - Cheap Honesty tab

Author/Artist: SKUNK ANANSIE
Title: Cheap Honesty
Transcribed by: Tommy David
Website: http://www.tommydavid.com


-----------------|
-----1p0---------|
-------------4---|
---2-------4-----|  (x 6)
-0-------2-------|
-----------------|


-----0-----0--------------------|---1---1---0---0-----0--------0--------------|
---3-----3-----2--2--3p2---2----|-------------------3---3----3---3------------|
-0------------------------------|---------0---0-------------------------------|
-------3-----2-----------2------|-0---0-----------3--------3------------------|
--------------------------------|---------------------------------------------|
--------------------------------|---------------------------------------------|

-------------------------------|-------------------------------|--------------|
-------------------------------|-------------------------------|--------------|
---------------77777-------555-|---------------77777---555-----|--------------|
-88888--55555--77777---777-555-|-88888--55555--77777---555-777-|--------------|
-88888--55555--55555---777-333-|-88888--55555--55555---333-777-|--------------|
-66666--33333----------555-----|-66666--33333--------------555-|--------------|


-------------------------------|----------------------------------------------|
-------------------------------|----------------------------------------------|
---------------77777-------555-|---------------2------------------------------|
-88888--55555--77777---777-555-|-88888--55555--2------------------------------|
-88888--55555--55555---777-333-|-88888--55555--0------------------------------|
-66666--33333----------555-----|-66666--33333---------------------------------|

-----------------|
-----1p0---------|
-------------4---|
---2-------4-----|   (x 4)
-0-------2-------|
-----------------|


-----0-----0--------------------|---1---1---0---0-----0--------0--------------|
---3-----3-----2--2--3p2---2----|-------------------3---3----3---3------------|
-0------------------------------|---------0---0-------------------------------|
-------3-----2-----------2------|-0---0-----------3--------3------------------|
--------------------------------|---------------------------------------------|
--------------------------------|---------------------------------------------|


-------------------------------|-------------------------------|--------------|
-------------------------------|-------------------------------|--------------|
---------------77777-------555-|---------------77777---555-----|--------------|
-88888--55555--77777---777-555-|-88888--55555--77777---555-777-|--------------|
-88888--55555--55555---777-333-|-88888--55555--55555---333-777-|--------------|
-66666--33333----------555-----|-66666--33333--------------555-|--------------|


-------------------------------|----------------------------------------------|
-------------------------------|----------------------------------------------|
---------------77777-------555-|---------------7-7-7-7-7-7-7-7----------------|
-88888--55555--77777---777-555-|-88888--55555--7-7-7-7-7-7-7-7----------------|
-88888--55555--55555---777-333-|-88888--55555--5-5-5-5-5-5-5-5----------------|
-66666--33333----------555-----|-66666--33333---------------------------------|

-----------------------------|-------|----------------------------------------|
-12-12-12--10-10-10----7-3-3-|-------|--7777-5555-44444444--------------------|
-12-12-12--11-11-11--9-7-3-3-|-------|--7777-5555-44444444--------------------|
-12-12-12--12-12-12----7-3-3-|--x 3--|--7777-5555-44444444--------------------|
-------------------------1-1-|-------|--5555-3333-22222222--------------------|
-----------------------------|-------|----------------------------------------|


-------------------------------------|-------------------------------------|
-------------------------------------|-------------------------------------|
-1010101010----------99999-------777-|---------------------99999---777-----|
-1010101010---77777--99999---999-777-|-1010101010---77777--99999---777-999-|x4
-1010101010---77777--77777---999-555-|-1010101010---77777--77777---555-999-|
-8-8-8-8-8----55555----------777-----|-8-8-8-8-8----55555--------------777-|


(----------------------)------------------------------------------------------|
(----------------------)------------------------------------------------------|
(--------------------9-)------------------------------------------------------|
(1010101010---77777--9-)-( 4th)-----------------------------------------------|
(1010101010---77777--7-)------------------------------------------------------|
(8-8-8-8-8----55555----)------------------------------------------------------|


-----0-------0-------0-------0---|----0-------0---0---------------------------|
----1-1-----1-1-----0-0-----0-0--|---1-1-----1-1--0---------------------------|
---0---0---2---2---0---0---0---0-|--0---0---2---2-0---------------------------|
--2-----2-2-----2-2-----2-2-----2|-2-----2-2-----22---------------------------|
-3-------0-----------------------|3-------0-------2---------------------------|
-----------------0-------0-------|----------------0---------------------------|
Tap to rate this tab
# A B C D E F G H I J K L M N O P Q R S T U V W X Y Z