Guitaretab - guitar tabs
Song name
# A B C D E F G H I J K L M N O P Q R S T U V W X Y Z

Skunk Anansie - Follow Me Down tab

SKUNK ANANSIE

SONG: FOLLOW ME DOWN

ALBUM: POST ORGASMIC CHILL

TABBED BY: ULTRAPEDRO

VERSE
-- 8----7---- 8----10-||-- 8----7---- 8----7-
--10----8----10----12-||--10----8----10----9-
--10----9----10----12-||--10----9----10----9-
----------------------||---------------------
----------------------||---------------------
----------------------||---------------------

BRIDGE (this part is in drop D)
e------------------------
B------------------------
G------------------------
D------------------------
A------------------------
D--7~~~~-0~~~~-3~~~~~~~~-
[ Tab from: http://www.guitaretab.com/s/skunk-anansie/28804.html ]
CHORUS (1 AND 2 CHORUS CLEAN, 3 AND 4 CHORUS WITH LIGHT DISTORTION)
--0----0----------------0----2----3----
--1----3-------1-----1--1----1----3----
--0----0------2-----2---2----2----4----
--2----0-----2-----2----3----0----5----
--3----2----0-----3-----3---------5----
----------------------------------3----

BRIDGE
-----13---13\7----7/10--
--12--------------------
------------------------
------------------------
------------------------
------------------------

I`m not sure about the verse and the bridge but i think it`s pretty close. for corrections wrute to: ultrapedro@iol.pt
Related for Follow Me Down tab