Guitaretab - guitar tabs
Song name
# A B C D E F G H I J K L M N O P Q R S T U V W X Y Z

Sky Eats Airplane - She Is Just A Glitch tab

E--5----7----4----5---4-------|  X4
B---0----0----0----0---0--5---|
G----6----6----6----6---6-----|
D-----------------------------|
A-----------------------------|
D-----------------------------|

                                 X2
E--0---0---0---0---0---|
B---0---0---0---0---0--|
G----6---6---6---6---6-|
D----------------------|
A----------------------|
D----------------------|


When the guy comes in to sing

E----------------------|
B----------------------|
G------6---4-----------|
D----4---7-------------|
A----------------------|
D----------------------|

                                                      {X4

E----------------------|
B----------------------|
G-----4-6---4-6--------| then this fill every 2 times
D---4-----4-----4------|
A----------------------|
D----------------------|

Pause for a bit then come in with these chords

E---------------------------------------------------------|
B---------------------------------------------------------|
G--------7----2----4--------------------------------------|{2X
D--4-----7-8X-2-4X-4-4X-----------------------------------|
A--4-16X-5----0----2--------------------------------------|
D--4------------------------------------------------------|

then the stops

E---------------------------------------------------------|
B---------------------------------------------------------|
G-------------------7-7-7--7-7-7-7---2-2-2-4-4------------|{2X
D--4-4-4--4-4-4-4---7-7-7--7-7-7-7---2-2-2-4-4------------|
A--4-4-4--4-4-4-4---5-5-5--5-5-5-5---0-0-0-2-2------------|
D--4-4-4--4-4-4-4-----------------------------------------|


then i guess the chorus

E---------------------------------------------------------|
B---------------------------------------------------------|
G--2-----4-----------7----9-------------------------------|{2X
D--2-16X-4-16X-4-----7-8X-9-8X----------------------------|
A--0-----2-----4-16X-5----7-------------------------------|
D--------------4------------------------------------------|

guitar 1

[ Tab from: http://www.guitaretab.com/s/sky-eats-airplane/101954.html ]
E---------------------------------------------------------|
B---------------------------------------------------------|
G---------------------------------------------------------|{2X(on the 7 and
D---4-----7----6------------------------------------------|the 6 chord make
A---4-24X-7-3X-6-3X---------------------------------------|it a triplet feel
D---4-----7----6------------------------------------------|you'll hear it)

guitar 2


E---------------------------------------------------------|
B---------------------------------------------------------|
G--11-----6-----7-----9-----------------------------------|{2X
D--X--9X/-X--9X-X--9X-X--9X-------------------------------|
A--9------4-----5-----7-----------------------------------|
D---------------------------------------------------------|


Bridge

E---------------------------------0-----------------------|
B---------------------------------------------------------|
G-----6---4---6---4---6---4---6---------------------------| {2X
D---4---7---4---7---4---7---4---4-------------------------|
A---------------------------------------------------------|
D---------------------------------------------------------|

E---------------------------------------------------------|
B---------------------------------------------------------|
G---7----4------------------------------------------------|{2X
D---7-8X-4-8X-4----7--------------------------------------|
A---5----2----4-8X-7-8X-----------------------------------|
D-------------4----7--------------------------------------|


2nd ending chorus i don't really know what to call it


E---------------------------------------------------------|
B---------------------------------------------------------|
G---7----9------------------------------------------------|
D---7-8X-9-8X-4----7--------------------------------------|
A---5----7----4-8X-7-8X-----------------------------------|
D-------------4----7--------------------------------------|

The part where he says i am just fine 2 day

yeah well i had to be the A-hole to do this song cuz everyone else was prolly like, fuck 
it practically repeats and if you have a good ear you prolly can notice i just made up 
on that stuff before the bridge on the solo

Well my name is chris i've done this Giants in the ocean ( the first one thats rated) 
Eye for an Eye by Johnny ringo Check them out if you like hardcore with weird breakdowns 
to Johnny

HMC!!!!!!
Related for She Is Just A Glitch tab
Advertisement will be closed in 10 seconds