Song name
# A B C D E F G H I J K L M N O P Q R S T U V W X Y Z

Sky Eats Airplane - Giants In The Ocean tab

Help us improve GuitareTab! Take a short survey!
Song Title: Giants in the Ocean
Artist: Sky Eats Airplane
Album: Everything Perfect on the Wrong Day


Tabbed by: Chris
Email: sparky5th@gmail.com

Tuning: Drop D (D-A-D-G-B-E)


I felt the need to write this because every other tab for this song
on this site was miserably wrong.


The intro's a bass\synth part.
if you wanna play it, you'll have to tune to drop C.

Here it is though:

C|2-2-52---2-2-52--20--01--2-2-52---2-22252--20--01--|


e|---------------|
B|---------------|
G|---------------|
D|-000000--00000-|
A|-000000--00000-|
D|-000000--00000-|
PM|-------------|
(Boundless water...)


e|-----------------------------------------------------------------|
B|-----------------------------------------------------------------|
G|-----------------------------------------------------------------|
D|-55555555------33333333------1010101010101010------11111111------|
A|-55555555-(x2)-33333333-(x2)-1010101010101010-(x2)-11111111-(x2)-|
D|-55555555------33333333------1010101010101010------11111111------|
(In an eternity frame of mind...)


e|---------------|
B|---------------|
G|---------------|
D|-000000--00000-|
A|-000000--00000-|
D|-000000--00000-|
PM|-------------|
(Peaks break through)


e|------------------------------------------|
B|------------------------------------------|
G|------------------------------------------|
D|------------------------------------------|
A|------------------------------------------|
D|-4444444400000000111111111111111177777777-|
PM|---------------------------------------|
		   ^Thats 8 'elevens' in a row, in case you didn't feel like counting.


e|-----------------------|
B|-----------------------|
G|-----------------------|
D|---------5-----7-5-----|   x4
A|-0-3-2-0-3---0-5-3-3-5-|
D|-0-3-2-0-----0-----3-5-|
PM|-------|   |-|
(Mountains climb & topple...)


I tried to get the rhythm right on this section, but it's a little weird..
e|---------------------------------------|
B|---------------------------------------|
G|---------------------------------------|
D|-------------------------------------3-|
A|-11-1111-1-11-11--11-1--11-1--11-1---3-|
D|-11-1111-1-11-11--11-1--11-1--11-1---3-|
PM|--------------------------------|
(All things drift quietly away...)


e|---------------------------------|
B|---------------------------------|
G|---------------------------------|
D|----------4----------------------|   x2
A|-00-00-0---3-5-6--00-00---00-00--|
D|-00-00-0----------00-00---00-00--|
PM|------|          PM|---------|
(Forget your cellphone, man...)


e|----------------|
B|----------------|
G|----------------|
D|----------------|	x3
A|-00-00---00-00--|
D|-00-00---00-00--|
PM|------------|
(It won't work here...)


There's no guitar in this next section, but I liked the synth, so I transcribed it.
e|-----|7-5-0-----------7-5-0-------5---|
B|-----|--------8---7-----------8-7-----|
G|-7-6-|4-------------------------------|
D|-----|--------------------------------|	x4
A|-----|--------------------------------|
D|-----|--------------------------------|


e|-------------------|
B|-------------------|
G|-------------------|
D|---------7-5-------|	x4
A|-0-00-00-----5-6---|
D|-0-00-00-----------|
PM|------|



Thats about it. Pretty easy, for the most part.
This was indeed my first tab.
Questions, comments, complaints; E-mail me.

Related for Giants In The Ocean tab