Song name
# A B C D E F G H I J K L M N O P Q R S T U V W X Y Z

Sky Eats Airplane - The Opposite Viewed In Real Time tab

------------------------------------------------------------------------------
	  The Opposite viewed in real time - Sky Eats Airplane
-------------------------------------------------------------------------------
Tabbed by:blinkrocks
Email:heisouronlyhope@yahoo.com

Tuning:drop D (DADGBE)

this is not the whole song but it's more then just the intro.
this is all I've learned so far of the song.
e|--------------------------------------------------|
B|--------------------------------------------------|
G|----7---7-7--7---7-7--7---7-7--7------------------| repeat 3X
D|----7---7-7--7---7-7--7---7-7--7------------------|
A|----5---5-5--5---5-5--5---5-5--5---4-5-7-5-4-5----|
D|----0---0-0--0---0-0--0---0-0--0------------------|
..........*.*......*.*......*.*.....................
play this the 4th time
e|--------------------------------------------------|
B|--------------------------------------------------|
G|----7---7-7--7---7-7--7---7-7--7------------------| 
D|----7---7-7--7---7-7--7---7-7--7------------------|
A|----5---5-5--5---5-5--5---5-5--5---4-5-7-5-4b-----|
D|----0---0-0--0---0-0--0---0-0--0------------------|
..........*.*......*.*......*.*......................

e|--------------------------------------------------|
B|--------------------------------------------------|
G|--------------------------------------------------|
D|--0-0-0-0-0-3-0-0-0-0-0--3-3-3-3-5----------------| repeat 2 times
A|--0-0-0-0-0-3-0-0-0-0-0--3-3-3-3-5----------------|
D|--0-0-0-0-0-3-0-0-0-0-0--3-3-3-3-5----------------|


| /  slide up
| \  slide down
| h  hammer-on
| p  pull-off
| ~  vibrato
| +  harmonic
| x  Mute note
| b  bend
===============================================================================
Tap to rate this tab
# A B C D E F G H I J K L M N O P Q R S T U V W X Y Z