Song name
# A B C D E F G H I J K L M N O P Q R S T U V W X Y Z

Sky Sailing - Brielle tab

----------------------------------------------------------------------------
			     Brielle - Sky Sailing
----------------------------------------------------------------------------
Tabbed by: Jeremy Keltner
Email: jkeltner@rams.colostate.edu

Tuning: Down 1 Step (DGCFAD)

Intro & Verse: (Repeat 3 times)

e|----------------------------------------------------|
B|----1-----1-----1-----1------3-----3-----3/5---1----|
G|------0-----0-----0-----0------0-----0-------0---0--|
D|--3-----3-----2-----2-----/5-----5------------------|
A|---------------------------------------3------------|
E|----------------------------------------------------|

e|----------------------------------------------3----|
B|----1-----1-----1-----1---------3---1-------3------|
G|------0-----0-----0-----0---2/4---0-----2/4-----5--|
D|--3-----3------------------------------------------|
A|--------------3-----3------------------------------|
E|--------------------------3-----------3------------|

e|----------------------------------------------------|
B|----1-----1-----1-----1------3-----3-----3/5---1----|
G|------0-----0-----0-----0------0-----0-------0---0--|
D|--3-----3-----2-----2-----/5-----5------------------|
A|---------------------------------------3------------|
E|----------------------------------------------------|

e|-----------------------------------------------3----|
B|----1-----1----------------------3---1-------3------|
G|------0-----0----5-0---5-0---2/4---0-----2/4-----5--| (x3)
D|--3-----3-----/7-----7------------------------------|
A|----------------------------------------------------|
E|---------------------------3-----------3------------|

Pre-Chorus

When the new sights grow old...
e|--8---8---8---3--------------------------------------------|
B|--5---5---5---3---8--8--8--8-8-8--8---8--8--8--8---8--x-x--|
G|--5---5---5---5---0--0--0--0-0-0--0---0--0--0--0---0--x-x--|
D|--7---6---5---4---7--7--7--7-7-7-/9---9--9--9--9---9--x-x--|
A|------------------8--8--8--8-8-8-/10--10-10-10-10--10-x-x--|
E|-----------------------------------------------------------|

Chorus

e|--3-------1---3---3-------1---3--3--|
B|--1---8---3---1---1---8---3---1--3--|
G|--0---0---2---2---0---0---2---2--4--| (x2)
D|--2---9---0---3---2---9---0---3--5--|
A|--3---10----------3---10------------|
E|------------------------------------|

So until then I wish you well...
e|--1--3--3--3~--|
B|--3--1--1--3~--|
G|--2--0--2--4~--|
D|--0--2--3--5~--|
A|---------------|
E|---------------|

Verse 2 (Play Intro x2)

Pre-Chorus 2 (Repeat Pre-Chorus)

Chorus 2 

e|--3-------1---3---3-------1---3--3--|
B|--1---8---3---1---1---8---3---1--3--|
G|--0---0---2---2---0---0---2---2--4--| (x2)
D|--2---9---0---3---2---9---0---3--5--|
A|--3---10----------3---10------------|
E|------------------------------------|


So until then I wish you well...
e|--1--3--3---|
B|--3--1--1---|
G|--2--0--2---| (x2)
D|--0--2--3---|
A|------------|
E|------------|

I love you my darling farewell, my dear Brielle...
e|--1--3--3--3~--|
B|--3--1--1--3~--|
G|--2--0--2--4~--|
D|--0--2--3--5~--|
A|---------------|
E|---------------|


Outro

e|-----------------------------------3----3~---|
B|----1-----1----------------------3------1~---|
G|------0-----0----5-0---5-0---2/4-----0--0~---| (x3)
D|--3-----3-----/7-----7------------------2~---|
A|----------------------------------------3~---|
E|---------------------------3-----------------|

Another amazing song by Adam Young, it's really fun to play as well. Enjoy!


************************************

| /   slide up
| \   slide down
| h   hammer-on
| p   pull-off
| ~   vibrato
| +   harmonic
| x   Mute note
| b   Bend
| pb  Pre-bend
| br  Bend release
| pbr Pre-bend release
| brb Bend release bend

************************************
Tap to rate this tab
 
# A B C D E F G H I J K L M N O P Q R S T U V W X Y Z