Song name
# A B C D E F G H I J K L M N O P Q R S T U V W X Y Z

Sky Sailing - A Little Opera Goes A Long Way tab

--------------------------------------------------------------------
	       A Little Opera Goes A Long Way - Sky Sailing
--------------------------------------------------------------------


Tabbed by: Jeremy Keltner
Email: jkeltner@rams.colostate.edu

Tuning: Open D Variation (DADAAD)

Tuning Note: Low and high E strings 1 step down to D
             G string 1 step up to A
             B string 1 step down to A             

Once your tuning is correct, this song is a blast to play. Have fun!

Intro:

D|----------------------------------|
A|----------------------------------|
A|-----------0----------------------|
D|-----2/4-------0-----0h2--2/4--0--|
A|-----------------0h2--------------|
D|--0------0---0--------------------|

D|----------------------------------|
A|----------------------------------|
A|-----------0-----------------2-0--|
D|-----2/4-------0-------0h2h4------|
A|-----------------0h2h4------------|
D|--0------0---0--------------------|

D|-------0--0-0-0-------0--0-0-0-------0--0-0-0--0--0---0--0--|
A|-------0--0-0-0-------0--0-0-0-------0--0-0-0--0--0---0--0--|
A|-------0--0-0-0-------0--0-0-0-------0--0-0-0--5--5\4-4--4--|
D|-------0--0-0-0-------0--0-0-0-------0--0-0-0--4--4\2-2--2--|
A|--4/5--5--5-5-5--4/5--5--5-5-5--4/5--5--5-5-5--2--2---0--0--|
D|--4/5--5--5-5-5--4/5--5--5-5-5--4/5--5--5-5-5---------------|

D|----------------------------------|
A|----------------------------------|
A|-----------0----------------------|
D|-----2/4-------0-------0-2/4\2p0--|
A|-----------------0h2h4------------|
D|--0------0---0--------------------|

D|--------------------------------------|
A|--------------------------------------|
A|-----------0--------------------------|
D|-----2/4-------0-------0h2h4-------0--|
A|-----------------0h2h4-------0h2h4----|
D|--0------0---0------------------------|

D|-------0--0-0-0-------0--0-0-0-------0--0-0-0--0--0---0--0--|
A|-------0--0-0-0-------0--0-0-0-------0--0-0-0--0--0---0--0--|
A|-------0--0-0-0-------0--0-0-0-------0--0-0-0--5--5\4-4--4--|
D|-------0--0-0-0-------0--0-0-0-------0--0-0-0--4--4\2-2--2--|
A|--4/5--5--5-5-5--4/5--5--5-5-5--4/5--5--5-5-5--2--2---0--0--|
D|--4/5--5--5-5-5--4/5--5--5-5-5--4/5--5--5-5-5---------------|

Verse:

I'll save you...
D|--0--0--0-0-0--0--0--0-0-0--0--0--0-0-0--0--0--0-0-0--|
A|--0--0--0-0-0--0--0--0-0-0--0--0--0-0-0--0--0--0-0-0--|
A|--0--0--0-0-0--0--0--0-0-0--0--0--0-0-0--0--0--0-0-0--|
D|--0--0--0-0-0--0--0--0-0-0--2--2--2-2-2--2--2--2-2-2--|
A|--0--0--0-0-0--0--0--0-0-0--0--0--0-0-0--0--0--0-0-0--|
D|--0--0--0-0-0--0--0--0-0-0----------------------------|

An echo from the hall...
D|--0--0--0-0-0--0--0--0-0-0--0--0--0-0-0--0--0--0-0-0--|
A|--0--0--0-0-0--0--0--0-0-0--0--0--0-0-0--0--0--0-0-0--|
A|--0--0--0-0-0--0--0--0-0-0--0--0--0-0-0--0--0--0-0-0--|
D|--4--4--4-4-4--2--2--2-2-2--0--0--0-0-0--0--0--0-0-0--|
A|--2--2--2-2-2--0--0--0-0-0--5--5--5-5-5--5--5--5-5-5--|
D|----------------------------5--5--5-5-5--5--5--5-5-5--|

And I'll paint you...
D|--0--0--0-0-0--0--0--0-0-0--0--0--0-0-0--0--0--0-0-0--|
A|--0--0--0-0-0--0--0--0-0-0--0--0--0-0-0--0--0--0-0-0--|
A|--0--0--0-0-0--0--0--0-0-0--0--0--0-0-0--0--0--0-0-0--|
D|--0--0--0-0-0--0--0--0-0-0--2--2--2-2-2--2--2--2-2-2--|
A|--0--0--0-0-0--0--0--0-0-0--0--0--0-0-0--0--0--0-0-0--|
D|--0--0--0-0-0--0--0--0-0-0----------------------------|

An dreamscape on your bedroom wall...
D|--0--0--0-0-0--0--0--0-0-0--0--0--0-0-0--0--0--0-x-x--|
A|--0--0--0-0-0--0--0--0-0-0--0--0--0-0-0--0--0--0-x-x--|
A|--0--0--0-0-0--0--0--0-0-0--0--0--0-0-0--0--0--0-x-x--|
D|--4--4--4-4-4--2--2--2-2-2--0--0--0-0-0--2--2--2-x-x--|
A|--2--2--2-2-2--0--0--0-0-0--5--5--5-5-5--0--0--0-x-x--|
D|----------------------------5--5--5-5-5---------------|


Chorus:

Pretend you're not alone...
D|--0--0--0-0-0--0--0--0-0-0--0--0--0-0-0--0--0--0-0-0--|
A|--0--0--0-0-0--0--0--0-0-0--0--0--0-0-0--0--0--0-0-0--|
A|--4--4--4-4-4--5--5--5-5-5--7--7--7-7-7--5--5--5-5-5--|
D|--2--2--2-2-2--4--4--4-4-4--5--5--5-5-5--4--4--4-4-4--|
A|--0--0--0-0-0--0--0--0-0-0--7--7--7-7-7--0--0--0-0-0--|
D|---------------0--0--0-0-0---------------0--0--0-0-0--|

Broadway...
D|--0--0--0-0-0--0--0--0-0-0--0--0--0-0-0--0--0--0-0-0--|
A|--0--0--0-0-0--0--0--0-0-0--0--0--0-0-0--0--0--0-0-0--|
A|--0--0--0-0-0--0--0--0-0-0--0--0--0-0-0--0--0--0-0-0--| (x2)
D|--0--0--0-0-0--0--0--0-0-0--0--0--0-0-0--0--0--0-0-0--|
A|--5--5--5-5-5--9--9--9-9-9--7--7--7-7-7--7--7--7-7-7--|
D|--5--5--5-5-5--9--9--9-9-9--7--7--7-7-7--7--7--7-7-7--|

Chorus Guitar 2:

Just repeat
D|------7------7--|
A|--5-5----5-5----|
A|----------------| (x16)
D|----------------|
A|----------------|
D|----------------|

Chorus Guitar 3 Lick:

(this is played with an octave effect)
                             D|---------------------|
                             A|---------------------|
                             A|--------------0------|
...center stage on broadway  D|--------0-2-4---2~---|
                             A|--0-2-4--------------|
                             D|---------------------|


Then play:

Intro x1
Verse x1
Chorus x1

Interlude:

I'll capsize this highrise...
D|--0--0--0-0-0--0--0--0-0-0--0--0--0-0-0--0--0--0-0-0--|
A|--0--0--0-0-0--0--0--0-0-0--0--0--0-0-0--0--0--0-0-0--|
A|--0--0--0-0-0--0--0--0-0-0--0--0--0-0-0--0--0--0-0-0--|
D|--0--0--0-0-0--0--0--0-0-0--0--0--0-0-0--0--0--0-0-0--|
A|--5--5--5-5-5--5--5--5-5-5--0--0--0-0-0--0--0--0-0-0--|
D|--5--5--5-5-5--5--5--5-5-5--0--0--0-0-0--0--0--0-0-0--|

And weld a cable car...
D|--0--0--0-0-0--0--0--0-0-0--0--0--0-0-0--0-0-0-0--|
A|--0--0--0-0-0--0--0--0-0-0--0--0--0-0-0--0-0-0-0--|
A|--0--0--0-0-0--0--0--0-0-0--0--0--0-0-0--0-0-0-0--|
D|--0--0--0-0-0--0--0--0-0-0--0--0--0-0-0--0-0-0-0--|
A|--5--5--5-5-5--5--5--5-5-5--7--7--7-7-7--7-7-9-9--|
D|--4--4--4-4-4--5--5--5-5-5--7--7--7-7-7--7-7-9-9--|

Then I'll drive down...
D|--0--0--0-0-0--0--0--0-0-0--0--0--0-0-0--0--0--0-0-0--|
A|--0--0--0-0-0--0--0--0-0-0--0--0--0-0-0--0--0--0-0-0--|
A|--0--0--0-0-0--0--0--0-0-0--0--0--0-0-0--0--0--0-0-0--|
D|--0--0--0-0-0--0--0--0-0-0--0--0--0-0-0--0--0--0-0-0--|
A|--5--5--5-5-5--5--5--5-5-5--0--0--0-0-0--0--0--0-0-0--|
D|--5--5--5-5-5--5--5--5-5-5--0--0--0-0-0--0--0--0-0-0--|

And end up where you are...
D|--0--0--0-0-0--0--0--0-0-0--0--0--0-0-0--0--0--0-0-0--|
A|--0--0--0-0-0--0--0--0-0-0--0--0--0-0-0--0--0--0-0-0--|
A|--0--0--0-0-0--0--0--0-0-0--0--0--0-0-0--0--0--0-0-0--|
D|--0--0--0-0-0--0--0--0-0-0--0--0--0-0-0--0--0--0-0-0--|
A|--5--5--5-5-5--5--5--5-5-5--7--7--7-7-7--7--7--7-7-7--|
D|--4--4--4-4-4--5--5--5-5-5--7--7--7-7-7--7--7--7-7-7--|

Breakdown:

(the timing is a bit tricky, just practice 
 a few times with the song to get it down)
D|--0--0--x-x-x-0--0-0-0--0--0--x-x-x-0--0--0-0-0-0--|
A|--0--0--x-x-x-0--0-0-0--0--0--x-x-x-0--0--0-0-0-0--|
A|--0--0--x-x-x-0--0-0-0--0--0--x-x-x-0--0--0-0-0-0--| (x3)
D|--0--0--x-x-x-0--0-0-0--0--0--x-x-x-0--0--0-0-0-0--|
A|--9--9--x-x-x-9--9-5-5--5--5--x-x-x-5--5--5-5-5-5--|
D|--9--9--x-x-x-9--9-4-4--5--5--x-x-x-5--5--5-5-5-5--|

4th time of breakdown
D|--0--0--x-x-x-0--0-0-0--0-----|
A|--0--0--x-x-x-0--0-0-0--0-----|
A|--0--0--x-x-x-0--0-0-0--0-----|
D|--0--0--x-x-x-0--0-0-0--0-----|
A|--9--9--x-x-x-9--9-5-5--5~----|
D|--9--9--x-x-x-9--9-4-4--5~----|

Then play: 

Chorus(x1)
Interlude(x1)

Finally, end on:

D|--0--|
A|--0--|
A|--0--|
D|--0--|
A|--0--|
D|--0--|


And that's it! Great song to jam to, the tuning is kinda 
tricky so send me an email if you need any help, thanks!


************************************

| /   slide up
| \   slide down
| h   hammer-on
| p   pull-off
| ~   vibrato
| +   harmonic
| x   Mute note
| b   Bend
| pb  Pre-bend
| br  Bend release
| pbr Pre-bend release
| brb Bend release bend

************************************
Tap to rate this tab
 
# A B C D E F G H I J K L M N O P Q R S T U V W X Y Z