Song name
# A B C D E F G H I J K L M N O P Q R S T U V W X Y Z

Sky Sailing - A Little Opera Goes A Long Way tab

-------------------------------------------------------------------------------
			     A LITTLE OPERA GOES A LONG WAY - Sky Sailing
-------------------------------------------------------------------------------
Tabbed by: Cwasson
Email: calebbwasson@yahoo.com

Tuning: Drop D

e|---------------------------------------------------------------------------|
B|---------------------------------------------------------------------------|
G|------------------2--------------------------------------2-----------------|
D|-------2/4-----4-----0--------0h2/4--0--------2/4-----4-----0---------0h2h4|
A|------------------------0h2--------------------------------------0h2h4-----|
E|----0-------0------------------------------0-------0-----------------------|

e|---------------------------------------------------------------------------|
B|---0--------------3-3-3-3-3-3-3-3-3-3-3-3-3-3-3-3-3-3-3-3-3-3-2-2-2-2-3----|
G|-------2----------2-2-2-2-2-2-2-2-2-2-2-2-2-2-2-2-2-2-2-2-2-2-2-2-2-2-2----|
D|------------------5-5-5-5-5-5-5-5-5-5-5-5-5-5-5-5-5-5-5-5-5-5-5-5-5-5-5----|
A|------------------5-5-5-5-5-5-5-5-5-5-5-5-5-5-5-5-5-5-5-5-5-5-5-5-5-5-5----|
E|------------------5-5-5-5-5-5-5-5-5-5-5-5-5-5-5-5-5-5-5-5-5-5-5-5-5-5-5----|

e|---------------------------------------------------------------------------|
B|---------------------------------------------------------------------------|
G|------------------2--------------------------------------2-----------------|
D|-------2/4-----4-----0-------0-2-4-2-0--------2/4-----4-----0---------0h2h4|
A|-----------------------0-2-4-------------------------------------0h2h4-----|
E|----0-------0------------------------------0-------0-----------------------|

e|---------------------------------------------------------------------------|
B|------------------3-3-3-3-3-3-3-3-3-3-3-3-3-3-3-3-3-3-3-3-3-3-2-2-2-2-3----|
G|------------------2-2-2-2-2-2-2-2-2-2-2-2-2-2-2-2-2-2-2-2-2-2-2-2-2-2-2----|
D|----------0-------5-5-5-5-5-5-5-5-5-5-5-5-5-5-5-5-5-5-5-5-5-5-5-5-5-5-5----|
A|---0h2h4----------5-5-5-5-5-5-5-5-5-5-5-5-5-5-5-5-5-5-5-5-5-5-5-5-5-5-5----|
E|------------------5-5-5-5-5-5-5-5-5-5-5-5-5-5-5-5-5-5-5-5-5-5-5-5-5-5-5----|

     *         *      *      *	      *
A/D: 3   A/Dm: 2   A: 2   D: 3   B/D: 3 
     2         2      2      2        2
     5         5      2      0        *
     5         5      0      0        2
     5         5      *      0        *





D                 A
I'll save you
    A/D 
An echo from the hall
D                 A
And I'll paint you
    A/D                     A/Dm   A/D
A dreamscape on your bedroom wall


A	        D           
Pretend you're not alone
A/D                                 D          A 
Like you are center stage on broadway
A	            D
'Cause when you're on your own
A/D                          D          A
A little opera goes a long way




e|---------------------------------------------------------------------------|
B|---------------------------------------------------------------------------|
G|------------------2--------------------------------------2-----------------|
D|-------2/4-----4-----0--------0h2/4--0--------2/4-----4-----0---------0h2h4|
A|------------------------0h2--------------------------------------0h2h4-----|
E|----0-------0------------------------------0-------0-----------------------|

e|---------------------------------------------------------------------------|
B|---0--------------3-3-3-3-3-3-3-3-3-3-3-3-3-3-3-3-3-3-3-3-3-3-2-2-2-2-3----|
G|-------2----------2-2-2-2-2-2-2-2-2-2-2-2-2-2-2-2-2-2-2-2-2-2-2-2-2-2-2----|
D|------------------5-5-5-5-5-5-5-5-5-5-5-5-5-5-5-5-5-5-5-5-5-5-5-5-5-5-5----|
A|------------------5-5-5-5-5-5-5-5-5-5-5-5-5-5-5-5-5-5-5-5-5-5-5-5-5-5-5----|
E|------------------5-5-5-5-5-5-5-5-5-5-5-5-5-5-5-5-5-5-5-5-5-5-5-5-5-5-5----|

e|---------------------------------------------------------------------------|
B|---------------------------------------------------------------------------|
G|------------------2--------------------------------------2-----------------|
D|-------2/4-----4-----0-------0-2-4-2-0--------2/4-----4-----0---------0h2h4|
A|-----------------------0-2-4-------------------------------------0h2h4-----|
E|----0-------0------------------------------0-------0-----------------------|

e|---------------------------------------------------------------------------|
B|------------------3-3-3-3-3-3-3-3-3-3-3-3-3-3-3-3-3-3-3-3-3-3-2-2-2-2-3----|
G|------------------2-2-2-2-2-2-2-2-2-2-2-2-2-2-2-2-2-2-2-2-2-2-2-2-2-2-2----|
D|----------0-------5-5-5-5-5-5-5-5-5-5-5-5-5-5-5-5-5-5-5-5-5-5-5-5-5-5-5----|
A|---0h2h4----------5-5-5-5-5-5-5-5-5-5-5-5-5-5-5-5-5-5-5-5-5-5-5-5-5-5-5----|
E|------------------5-5-5-5-5-5-5-5-5-5-5-5-5-5-5-5-5-5-5-5-5-5-5-5-5-5-5----|





D		   A
I'll meet you
            A/D                   
Where the page proclaims the end
D                  A
And I'll make do
          A/D
With the fractions my reactions bend



A	        D           
Pretend you're not alone
A/D                                 D          A 
Like you are center stage on broadway
A	            D
'Cause when you're on your own
A/D                          D          A
A little opera goes a long way



A/D
I'll capsize
A/D
This highrise
     B/D  A     D
And weld a cablecar
A/D
Then I'll drive down
                          B/D
To some southwestern town
   A         D
And end up where you are


B/D       A         D          A/D      x2

B/D       A         D



A	        D           
Pretend you're not alone
A/D                                 D          A 
Like you are center stage on broadway
A	            D
'Cause when you're on your own
A/D                          D          A
A little opera goes a long way



A/D
I'll reset
A/D
Your silhouette
   B/D   A    D
And be your parasol
A/D
So hold on to
A/D
Your flourescent view
   B/D   A    D
And if you slip and fall
                A/D
I will catch you




************************************

| /   slide up
| \   slide down
| h   hammer-on
| p   pull-off
| ~   vibrato
| +   harmonic
| x   Mute note
| b   Bend
| pb  Pre-bend
| br  Bend release
| pbr Pre-bend release
| brb Bend release bend

************************************
Tap to rate this tab
 
# A B C D E F G H I J K L M N O P Q R S T U V W X Y Z