Sky Sailing - Tennis Elbow tab

Capo 1

Guitar 1- Rythm


E|--------------------------------------------------------------|
B|--------------------------------------------------------------|
G|--------5-----------5-----------0-----0--2--0-----------5-----|
D|-----3-----3-----3-----3-----------3-----------3-----3-----3--|
A|--5-----------3-----------------------------------5-----------|
E|--------------------------1--1--------------------------------|

E|--------------------------------------|
B|--------------------------------------|
G|--------5-----------0-----0--3--2-----|
D|-----3-----3-----------3-----------3--|  (This repeats through most of the
A|--3-----------------------------------|   song. Every 2 times it repeats it
E|--------------1--1--------------------|    ends with this next part..)

(Ending after 2 repeats)

E|-----------1--|
B|-----------1--|
G|-----------2--|
D|-----3-----3--|
A|--------------|
E|--1-----1-----|


Guitar 2 (Also Capo 1)- Lead   (This sounds a little sketchy, best played with rythm. If 
want you can leave out the G string (tehe) and just play what's on the B)

E|--------------------------------------------|
B|--8--10--8--6--1--6--1--3--5--6--1--1--6--1-|
G|--0--0---0--0--0--0--0--0--0--0--0--0--0--0-|
D|--------------------------------------------|
A|--------------------------------------------|
E|--------------------------------------------|

E|-----------------------|
B|--8--10--8--6--1--6--1-|
G|--0--0---0--0--0--0--0-|
D|-----------------------|
A|-----------------------|
E|-----------------------|

E|--------------------------1--|
B|--5--6--5--6--------------1--|
G|--------------5--3--2-----2--|
D|-----------------------3--3--|
A|-----------------------------|
E|-----------------------------|


Guitar 1- Rythm riff 2

We are lost..

E|--------------------------------------------------|
B|--------------------------------------------------|
G|--------5-----------5-----------------2-----5-----|
D|-----3-----3-----3-----3-----0--2--3-----3-----3--|
A|--5-----------1-----------------------------------|
E|--------------------------1-----------------------|


in the sound...

E|--------------------------------------------------|
B|--------------------------------------------------|
G|--------5-----------5-----------0-----2-----5-----|
D|-----3-----3-----3-----3-----3-----3-----3-----3--|  repeat these 2 until
A|--5-----------1-----------3-----------------------|   the end
E|--------------------------------------------------|
Tap to rate this tab
 
# A B C D E F G H I J K L M N O P Q R S T U V W X Y Z