Sky Sailing - Captains Of The Sky tab

Capo 1

The chord changes in the song are pretty easy so I'll just give you the chords you need 
the right order


Pre-Verse

E|--3--3--3--|
B|--3--3--3--|
G|--0--0--0--|
D|--2--4--0--| x4
A|--------2--|
E|--------3--|

Verse and Chorus

E|--3--3--2--3--|
B|--3--3--3--3--|
G|--0--0--2--0--|
D|--2--0--0--2--|  x a lot
A|--3--2-----2--|
E|-----3-----0--|


Pre-Verse


Verse/Chorus


Bridge Rythm  (Hello down there... part)

E|--3--3--3--3--|
B|--3--3--3--3--|
G|--0--2--0--0--|
D|--0--2--0--2--|
A|--2--0--2--3--|
E|--3-----------|


Bridge Lead

E|--------3-----------3-----------3-----------3-----|
B|-----3-----3-----3-----3-----3-----3-----3-----3--|
G|--4-----------2-----------4-----------5-----------|
D|--------------------------------------------------|
A|--------------------------------------------------|
E|--------------------------------------------------|

E|--------3-----------3-----------3--7--8--7--5--3--|
B|-----3-----3-----3-----3-----3--------------------|
G|--4-----------2-----------4-----------------------|
D|--------------------------------------------------|  x till the end
A|--------------------------------------------------|
E|--------------------------------------------------|
Tap to rate this tab
 
# A B C D E F G H I J K L M N O P Q R S T U V W X Y Z