Song name
# A B C D E F G H I J K L M N O P Q R S T U V W X Y Z

Sky Sailing - Captains Of The Sky tab

-------------------------------------------------------------------------------
			     CAPTAINS OF THE SKY- Sky Sailing
-------------------------------------------------------------------------------
Tabbed by: hockeyamh
Email: hockeyamh@sbcglobal.net

Tuning: Standard

Capo 4

Another great project from Adam Young, Sky Sailing is amazing  This is the first 
off of his debut
album(under this name anyways), ďAn Airplane Carried Me to BedĒ, and is one of my favorites.
Itís a fairly simple song, great to sing along to. If you have any comments or 
just leave
em here and Iíll address them. Enjoy!

Just listen to the song for the strumming pattern, itís easy to pick up and Iím pretty 
it
doesnít change.

0:00 Ė 0:16

e|----0--------0--------0----------------------------------------------------|
B|----0--------0--------0----------------------------------------------------|
G|----6--------4--------x----------------------------------------------------|
D|----6--------4--------2----------------------------------------------------|
A|----4--------2--------2----------------------------------------------------|
E|----x--------x--------0----------------------------------------------------|

Mid air
I woke up beneath the flight deck
On the wall paper airplane
As you stared
I strapped my helmet on and left your driveway behind


0:16 - 00:49

e|----0--------0--------0--------0-------------------------------------------|
B|----0--------0--------0--------0-------------------------------------------|
G|----2--------x--------4--------6-------------------------------------------|
D|----2--------2--------4--------6-------------------------------------------|
A|----0--------2--------2--------4-------------------------------------------|
E|----x--------0--------x--------x-------------------------------------------|

[Chorus:]
Flutter all through the night
And we can blow the clouds around
This paper hanger skyline
Summer smile again
And you can disappear
But I'd rather be here


0:49 - 1:04

e|----0--------0--------0----------------------------------------------------|
B|----0--------0--------0----------------------------------------------------|
G|----6--------4--------x----------------------------------------------------|
D|----6--------4--------2----------------------------------------------------|
A|----4--------2--------2----------------------------------------------------|
E|----x--------x--------0----------------------------------------------------|

Dive bomb
We descended down the stair case
And crashed to the kitchen floor
So long
Our flight of downy dreams
Preened our soft paper wings


1:04 - 1:36

e|----0--------0--------0--------0-------------------------------------------|
B|----0--------0--------0--------0-------------------------------------------|
G|----2--------x--------4--------6-------------------------------------------|
D|----2--------2--------4--------6-------------------------------------------|
A|----0--------2--------2--------4-------------------------------------------|
E|----x--------0--------x--------x-------------------------------------------|

[Chorus:]
Flutter all through the night
And we can blow the clouds around
This paper hanger skyline
Summer smile again
And you can disappear
But I'd rather be here

1:36 - 2:44(End)


e|----0--------0--------0--------0-------------------------------------------|
B|----0--------0--------0--------0-------------------------------------------|
G|----x--------4--------6--------2-------------------------------------------|
D|----2--------4--------6--------2-------------------------------------------|
A|----2--------2--------4--------0-------------------------------------------|
E|----0--------x--------x--------x-------------------------------------------|

Hello down there
The morning made of singers
In the air
Keeping the midnight stars
Held high
We are captains of the sky
Waving goodbye
[Repeat x2]

Like I said, very simple song. Hope this helps!

************************************


| x   Mute note


************************************
Tap to rate this tab
 
# A B C D E F G H I J K L M N O P Q R S T U V W X Y Z