Sky Sailing - Brielle tab

Intro: Capo on 3rd
|-------------------------------------------------------------|
|-------------------------------------------------------------|
|---0------0------0------0-----2-----2------2/3------3--------|
|-----0-------0-----0------0-----0-----0----------------------|
|-3------3------2------2------0-----0-----2------2------------|
|-------------------------------------------------------------|

|-------------------------------------------------------------|
|--------------------------------------------------3----------|
|---0------0------0------0----------2------------2------------|
|-----0-------0-----0------0------2---2---2-----2-------------|
|-3------3------2------2--------0-------0-----0---------------|
|-----------------------------2-------------------------------|


|-------------------------------------------------------------|
|-------------------------------------------------------------|
|---0------0------0------0-----2-----2------2/3----3----------|
|-----0-------0-----0------0-----0-----0-------------0--------|
|-3------3------2------2------0-----0-----2------2------------|
|-------------------------------------------------------------|


|-------------------------------------------------------------|
|----------------------------------------------------3--------|
|---0------0-------0-----0-----------2--------------2---------|
|-----0-------0------0-----0-------2----2----2-----2----------|
|-3------3------0h2----2---------0--------0------0------------|
|-----------------------------2-------------------------------|


I'm not 100% sure of this, I was listenin' while trying to figure out the stepbystep 
Hope it'll help. ;D

Thanks to 1maze in youtube for the influence! For the chords, just watch his video. see 
xDD
Tap to rate this tab
 
# A B C D E F G H I J K L M N O P Q R S T U V W X Y Z