Sky Sailing - Alaska tab

Alaska - Sky Sailing

e|-------0------------0----------------------X-X-|
B|-----------0------0-----0-------------0----X-X-|
G|-1/2-2---2---1--------1---------------1----X-X-|
D|--------------------------4---4/6\4-2-2----X-X-|
A|--------------------------2-----------2----X-X-|
E|--------------------------------------0----X-X-|


e|-2-4-7-----4-2-0-----4------0--------0--2------|
B|--------------------------2-------2----------0-|
 |-----------------------------------------------|
 |-----------------------------------------------|
 |-----------------------------------------------|
 |-----------------------------------------------|

e|-2-4-7-----5-4h5-4--5---4-2----0-------0--2--7--2-|
B|------------------------------------2-------------|
 |--------------------------------------------------|
 |--------------------------------------------------|
 |--------------------------------------------------|
 |--------------------------------------------------|
Tap to rate this tab
 
# A B C D E F G H I J K L M N O P Q R S T U V W X Y Z