Sky Sailing - Explorers tab

Sky Sailing - Explorers

Tabbed by: Adam Schweitzer

This song is another incredible day dream brought to you by the mind of Adam Young, and 
love singing it. Unfortunately, I didn't find any tabs out there, so I decided to make 
Comment and rate please! Thanks. :)
If you know how to song goes, you should be able to play it pretty well and improvise.

Tuning: Standard

This old mountain side where we used to reside
is slowly recalling the things we discovered in...
e|--x-----------x----------x----x-------------|
B|--3-----------2----------2----2-------------|
G|--2-----------2----------1----2-------------|
D|--2-----------2----------2----2-------------|
A|--0-----------0----------0----0-------------|
E|--x-----------x----------x----x-------------|

 side...                                       Oh the crystal caves
e|--2------x----x---x------0---------------|
B|--3------3----2---x------0---------------|
G|--2------2----2---2------1---------------|
D|--0------0----0---0------2---------------|
A|--0------0----0---0------2---------------|
E|--x------x----x---x------0---------------|

We shed both our jackets and I hammered brackets
From old metal chairs to the walls for a crude set of
e|--x-----------x----------x----x-------------|
B|--3-----------2----------2----2-------------|
G|--2-----------2----------1----2-------------|
D|--2-----------2----------2----2-------------|
A|--0-----------0----------0----0-------------|
E|--x-----------x----------x----x-------------|

stairs...                                     to lead us down
e|--2------x----x---x------0---------------|
B|--3------3----2---x------0---------------|
G|--2------2----2---2------1---------------|
D|--0------0----0---0------2---------------|
A|--0------0----0---0------2---------------|
E|--x------x----x---x------0---------------|

And you tied a rope to the steepening slope
A jerry rigged harness so we could descend in the
e|--x-----------x----------x----x-------------|
B|--3-----------2----------2----2-------------|
G|--2-----------2----------1----2-------------|
D|--2-----------2----------2----2-------------|
A|--0-----------0----------0----0-------------|
E|--x-----------x----------x----x-------------|

dark...                                   but the tide came in
e|--2------x----x---x------0---------------|
B|--3------3----2---x------0---------------|
G|--2------2----2---2------1---------------|
D|--0------0----0---0------2---------------|
A|--0------0----0---0------2---------------|
E|--x------x----x---x------0---------------|

         D               A                    E
And we found ourselves in the sea
D                  A
Deep under water
        F#m                E                         D
We both found that we could still breathe
          E                    F#m        D
So we spent the day submerged
       D                    E
And we swam the evening away

A, G, D (x2)


The water was clear like the pure atmosphere
As we kicked and fluttered through caverns all cluttered with
e|--x-----------x----------x----x-------------|
B|--3-----------2----------2----2-------------|
G|--2-----------2----------1----2-------------|
D|--2-----------2----------2----2-------------|
A|--0-----------0----------0----0-------------|
E|--x-----------x----------x----x-------------|

age...                                   in the afterglow
e|--2------x----x---x------0---------------|
B|--3------3----2---x------0---------------|
G|--2------2----2---2------1---------------|
D|--0------0----0---0------2---------------|
A|--0------0----0---0------2---------------|
E|--x------x----x---x------0---------------|

We swim hand and hand over white satin sand
And you left a ribbon to honor the pale gibbon
e|--x-----------x----------x----x-------------|
B|--3-----------2----------2----2-------------|
G|--2-----------2----------1----2-------------|
D|--2-----------2----------2----2-------------|
A|--0-----------0----------0----0-------------|
E|--x-----------x----------x----x-------------|

moon...                               but that was years ago
e|--2------x----x---x------0---------------|
B|--3------3----2---x------0---------------|
G|--2------2----2---2------1---------------|
D|--0------0----0---0------2---------------|
A|--0------0----0---0------2---------------|
E|--x------x----x---x------0---------------|

D, A
       D                             E
And we never came up for air
D             A
Down there
D              E            D
We can go anywhere

(silent)

The old world was dying while we took our flying
Like peregrine falcons beneath the transparent blue
e|--x-----------x----------x----x-------------|
B|--3-----------2----------2----2-------------|
G|--2-----------2----------1----2-------------|
D|--2-----------2----------2----2-------------|
A|--0-----------0----------0----0-------------|
E|--x-----------x----------x----x-------------|

waves...                              Far below the surf
e|--2------x----x---x------0---------------|
B|--3------3----2---x------0---------------|
G|--2------2----2---2------1---------------|
D|--0------0----0---0------2---------------|
A|--0------0----0---0------2---------------|
E|--x------x----x---x------0---------------|

And we spent the hours with submarine flowers
I knew I'd remember that day in November
e|--x-----------x----------x----x-------------|
B|--3-----------2----------2----2-------------|
G|--2-----------2----------1----2-------------|
D|--2-----------2----------2----2-------------|
A|--0-----------0----------0----0-------------|
E|--x-----------x----------x----x-------------|

As we(strum once)                  Felt alive again
e|--2------x----x---x------0---------------|
B|--3------3----2---x------0---------------|
G|--2------2----2---2------1---------------|
D|--0------0----0---0------2---------------|
A|--0------0----0---0------2---------------|
E|--x------x----x---x------0---------------|


         D               A                    E
And we found ourselves in the sea
D                  A
Deep under water
        F#m                E                         D
We both found that we could still breathe
          E                    F#m        D
So we spent the day submerged
       D                    E
And we swam the evening away

A, G, D (x4)
We swam the evening away

End on A

Thanks :3 Hope they were okay...sorry if they weren't. xD
Tap to rate this tab
 
# A B C D E F G H I J K L M N O P Q R S T U V W X Y Z