Song name
# A B C D E F G H I J K L M N O P Q R S T U V W X Y Z

Sky Sailing - Steady As She Goes tab

------------------------------------------------------
	          Steady As She Goes - Sky Sailing
         ------------------------------------------------------

Tabbed by: Jeremy Keltner
Email: jkeltner@rams.colostate.edu

Tuning: Drop C# Variation (C#,F#,C#,F#,G#,f#)
Tuning Note: E,A,B,&E strings down 1&1/2 steps to C#,F#,G#,f#
             D & G strings down 1/2 step to C# & F#

Adam Young loves to use strange tunings, but once your tuning is all set it sounds great. 
Email me if you need any extra help, enjoy!
             
             
Verse 1:
          Fare            well        night      mares
f#|--x-x--0---0--0--0--0--0--0-0-0-0--0--0-0-0-0-0--0-0-0-0---|
G#|--x-x--0---0--0--0--0--0--0-0-0-0--0--0-0-0-0-0--0-0-0-0---|
F#|--x-x-/11--11-11-11-11-7--7-7-7-7-/9--9-9-9-9-7--7-7-7-7---|
C#|--x-x--0---0--0--0--0--0--0-0-0-0--0--0-0-0-0-0--0-0-0-0---|
F#|--x-x-/11--11-11-11-11-7--7-7-7-7-/9--9-9-9-9-7--7-7-7-7---|
C#|--x-x--0---0--0--0--0--0--0-0-0-0--0--0-0-0-0-0--0-0-0-0---|

      I           am         free
f#|---0---0-0-0-0-0--0-0-0-0-0--0-0-0-0-0--0-0-0-0---|
G#|---0---0-0-0-0-0--0-0-0-0-0--0-0-0-0-0--0-0-0-0---|
F#|---4---4-4-4-4-6--6-6-6-6-7--7-7-7-7-7--7-7-7-7---|
C#|---0---0-0-0-0-0--0-0-0-0-0--0-0-0-0-0--0-0-0-0---|
F#|---0---0-0-0-0-7--7-7-7-7-7--7-7-7-7-7--7-7-7-7---|
C#|---5---5-5-5-5-7--7-7-7-7-9--9-9-9-9-9--9-9-9-9---|

      Welcome     streams of sweet      dreams    that     
f#|---0---0-0-0-0-0--0-0-0-0-0--0-0-0-0-0---0--0--0--0----|
G#|---0---0-0-0-0-0--0-0-0-0-0--0-0-0-0-0---0--0--0--0----|
F#|---7---7-7-7-7-7--7-7-7-7-9--9-9-9-9-11--11-11-11-11---|
C#|---0---0-0-0-0-0--0-0-0-0-0--0-0-0-0-0---0--0--0--0----|
F#|---7---7-7-7-7-7--7-7-7-7-9--9-9-9-9-11--11-11-11-11---|
C#|---4---4-4-4-4-5--5-5-5-5-7--7-7-7-7-9---9--9--9--9----|

      settle      over       me
f#|---0---0-0-0-0-0--0-0-0-0-0~---|
G#|---0---0-0-0-0-0--0-0-0-0-0~---|
F#|---4---4-4-4-4-6--6-6-6-6-7~---|
C#|---0---0-0-0-0-0--0-0-0-0-0~---|
F#|---4---4-4-4-4-6--6-6-6-6-7~---|
C#|---2---2-2-2-2-4--4-4-4-4-5~---|

          What            lies       out        there,
f#|--x-x--0---0--0--0--0--0--0-0-0-0-0--0-0-0-0-0--0-0-0-0---|
G#|--x-x--0---0--0--0--0--0--0-0-0-0-0--0-0-0-0-0--0-0-0-0---|
F#|--x-x-/11--11-11-11-11-9--9-9-9-9-6--6-6-6-6-7--7-7-7-7---|
C#|--x-x--0---0--0--0--0--0--0-0-0-0-0--0-0-0-0-0--0-0-0-0---|
F#|--x-x-/11--11-11-11-11-9--9-9-9-9-6--6-6-6-6-7--7-7-7-7---|
C#|--x-x--0---0--0--0--0--0--0-0-0-0-0--0-0-0-0-0--0-0-0-0---|

      no          one        knows
f#|---0---0-0-0-0-0--0-0-0-0-0--0-0-0-0-0--0-0-0-0---|
G#|---0---0-0-0-0-0--0-0-0-0-0--0-0-0-0-0--0-0-0-0---|
F#|---4---4-4-4-4-6--6-6-6-6-7--7-7-7-7-7--7-7-7-7---|
C#|---0---0-0-0-0-0--0-0-0-0-0--0-0-0-0-0--0-0-0-0---|
F#|---0---0-0-0-0-7--7-7-7-7-7--7-7-7-7-7--7-7-7-7---|
C#|---5---5-5-5-5-7--7-7-7-7-9--9-9-9-9-9--9-9-9-9---|

  The tide could  bring in   any        thing so
f#|---0---0-0-0-0-0--0-0-0-0-0--0-0-0-0-0---0--0--0--0----|
G#|---0---0-0-0-0-0--0-0-0-0-0--0-0-0-0-0---0--0--0--0----|
F#|---7---7-7-7-7-7--7-7-7-7-9--9-9-9-9-11--11-11-11-11---|
C#|---0---0-0-0-0-0--0-0-0-0-0--0-0-0-0-0---0--0--0--0----|
F#|---7---7-7-7-7-7--7-7-7-7-9--9-9-9-9-11--11-11-11-11---|
C#|---4---4-4-4-4-5--5-5-5-5-7--7-7-7-7-9---9--9--9--9----|

      steady      as she     goes,
f#|---0---0-0-0-0-0--0-0-0-0-0~---|
G#|---0---0-0-0-0-0--0-0-0-0-0~---|
F#|---4---4-4-4-4-6--6-6-6-6-7~---|
C#|---0---0-0-0-0-0--0-0-0-0-0~---|
F#|---4---4-4-4-4-6--6-6-6-6-7~---|
C#|---2---2-2-2-2-4--4-4-4-4-5~---|

        steady      as she     goes
f#|-x-x-0---0-0-0-0-0--0-0-0-0-0~---|
G#|-x-x-0---0-0-0-0-0--0-0-0-0-0~---|
F#|-x-x-4---4-4-4-4-6--6-6-6-6-7~---|
C#|-x-x-0---0-0-0-0-0--0-0-0-0-0~---|
F#|-x-x-4---4-4-4-4-6--6-6-6-6-7~---|
C#|-x-x-2---2-2-2-2-4--4-4-4-4-5~---|

Chorus 1:

      I          can        feel       her...
f#|--------0----------0----------0----------0-------|
G#|------0-----0----0-----0----0-----0----0-----0---|
F#|-------------------------------------------------| (x3)
C#|---5------5---4------4---2------2---0------0-----|
F#|-------------------------------------------------|
C#|-------------------------------------------------|

 When morning               breakes 
f#|--------0----------0----------0----------0-------|
G#|------0-----0----0-----0----0-----0----0-----0---|
F#|-------------------------------------------------| 
C#|---5------5---4------4---------------------------|
F#|-------------------------2------2----2-----2-----|
C#|-------------------------------------------------|

      Post       war        novels...
f#|--------0----------0----------0----------0-------|
G#|------0-----0----0-----0----0-----0----0-----0---|
F#|-------------------------------------------------| (x3)
C#|---5------5---4------4---2------2---0------0-----|
F#|-------------------------------------------------|
C#|-------------------------------------------------|

 When I          arrive 
f#|--------0----------0----------0------0--0-0-0-0---|
G#|------0-----0----0-----0----0-----0--0--0-0-0-0---|
F#|-------------------------------------2--2-2-2-2---| 
C#|---5------5---4------4---------------2--2-2-2-2---|
F#|-------------------------2------2----2--2-2-2-2---|
C#|--------------------------------------------------|

Verse 2 (Repeat Verse 1)

Chorus 2 (Repeat Chorus 1)

Verse 3

      What            lies       out        there,
f#|---0---0--0--0--0--0--0-0-0-0-0--0-0-0-0-0--0-0-0-0---|
G#|---0---0--0--0--0--0--0-0-0-0-0--0-0-0-0-0--0-0-0-0---|
F#|--/11--11-11-11-11-9--9-9-9-9-6--6-6-6-6-7--7-7-7-7---|
C#|---0---0--0--0--0--0--0-0-0-0-0--0-0-0-0-0--0-0-0-0---|
F#|--/11--11-11-11-11-9--9-9-9-9-6--6-6-6-6-7--7-7-7-7---|
C#|---0---0--0--0--0--0--0-0-0-0-0--0-0-0-0-0--0-0-0-0---|

      no          one        knows
f#|---0---0-0-0-0-0--0-0-0-0-0--0-0-0-0-0--0-0-0-0---|
G#|---0---0-0-0-0-0--0-0-0-0-0--0-0-0-0-0--0-0-0-0---|
F#|---4---4-4-4-4-6--6-6-6-6-7--7-7-7-7-7--7-7-7-7---|
C#|---0---0-0-0-0-0--0-0-0-0-0--0-0-0-0-0--0-0-0-0---|
F#|---0---0-0-0-0-7--7-7-7-7-7--7-7-7-7-7--7-7-7-7---|
C#|---5---5-5-5-5-7--7-7-7-7-9--9-9-9-9-9--9-9-9-9---|

  The tide could  bring in   any        thing so
f#|---0---0-0-0-0-0--0-0-0-0-0--0-0-0-0-0---0--0--0--0----|
G#|---0---0-0-0-0-0--0-0-0-0-0--0-0-0-0-0---0--0--0--0----|
F#|---7---7-7-7-7-7--7-7-7-7-9--9-9-9-9-11--11-11-11-11---|
C#|---0---0-0-0-0-0--0-0-0-0-0--0-0-0-0-0---0--0--0--0----|
F#|---7---7-7-7-7-7--7-7-7-7-9--9-9-9-9-11--11-11-11-11---|
C#|---4---4-4-4-4-5--5-5-5-5-7--7-7-7-7-9---9--9--9--9----|

      steady      as she     goes,
f#|---0---0-0-0-0-0--0-0-0-0-0~---|
G#|---0---0-0-0-0-0--0-0-0-0-0~---|
F#|---4---4-4-4-4-6--6-6-6-6-7~---|
C#|---0---0-0-0-0-0--0-0-0-0-0~---|
F#|---4---4-4-4-4-6--6-6-6-6-7~---|
C#|---2---2-2-2-2-4--4-4-4-4-5~---|

        steady      as she     goes
f#|-x-x-0---0-0-0-0-0--0-0-0-0-0~---|
G#|-x-x-0---0-0-0-0-0--0-0-0-0-0~---|
F#|-x-x-4---4-4-4-4-6--6-6-6-6-7~---| (x2)
C#|-x-x-0---0-0-0-0-0--0-0-0-0-0~---|
F#|-x-x-4---4-4-4-4-6--6-6-6-6-7~---|
C#|-x-x-2---2-2-2-2-4--4-4-4-4-5~---|

   
End on:
f#|---0~---|
G#|---0~---|
F#|---7~---|
C#|---0~---|
F#|---7~---|
C#|---0~---|





************************************

| /   slide up
| \   slide down
| h   hammer-on
| p   pull-off
| ~   vibrato
| +   harmonic
| x   Mute note
| b   Bend
| pb  Pre-bend
| br  Bend release
| pbr Pre-bend release
| brb Bend release bend

************************************
Tap to rate this tab
 
# A B C D E F G H I J K L M N O P Q R S T U V W X Y Z